Petr Spálený

piesne (318)

  texty (312) / preklady (1)
  akordy (76) / taby (1)
  noty (0) / slideshow (0)

články (12)
fotogaléria
diskusia
videá
diskografia
v obchode
odkazy
koncerty
sťahuj



pridaj vlastný článok

Čechomor:
Skončil sa Festival Lodenica: Tento rok najmä v znamení Tomáša Klusa,
Čechomoru, Chris Normana a Petra Spáleného !
- 14-ta Lodenica je minulosťou a fanúšikov folku, country a trampskej hudby prišlo op...


Bukasový Masív:
Začal festival Lodenica - Včera sa večerným koncertom skupín Slniečko, Neznámi s američanom Willie Jonesom a... - lodenica.sk


Čechomor:
Ťahákom bude Klus a Chris Norman - Sviatok fanúšikov folku, country a trampskej hudby sa opäť blíži, obľúbený hud... - lodenica.sk


Petr Spálený:
Boj o život: Petr Spálený zkolaboval přímo při koncertě - super.cz


Petr Spálený:
PETR SPÁLENÝ: Dítě štěstěny - PETR SPÁLENÝ: Dítě štěstěny Vytisknout Petr Spálený a veletucet jeho největ...


Abba:
Česko - slovenská hudební špička na Hané - denik.cz


Ewa Farna:
V IFPI nic nového pod sluncem - musicserver.cz


4tet:
V čele hitparády je po dvou týdnech opět Aneta Langerová - ihned.cz


50 Cent:
Spousta andělů vede hitparádu již deset týdnů - ihned.cz


Alibaba:
ČR: Hitparádu vede deska finalistů SuperStar - ČR: Hitparádu vede deska finalistů SuperStar Hitparádu nejprodávanějších desek... - mam.cz


 

Petr Spálený

Fanúšikov: 2



A B C Č D E F G H CH I J K L Ľ M N O P Q R S Š T U V W X Y Z Ž



ako:
Petr Spálený - Hráč
Petr Spálený - Hráč

tlač

edituj
Rok vzniku: 1977
V originále: The Gambler (Kenny Rogers)
Pesničku videlo 4740 návštevníkov.

Kvalita tabov : bez hodnotenia
Hodnotilo ľudí: 0 ohodnoť aj ty
Prispievateľ:

petr554
Autor hudby: Petr Spálený / Don Schlitz
Gtr acoustic 

(Capo 1)

Takt 2/4
Tempo Q = 95

Předehra
D G D
E E E E S S E E E S S E E E
E||--------------|-----------------|----------------|
B||-----3-----3--|--------3--------|-------3--------|
G||-----2-----2--|--------0--------|-------2--------|
D||--0-----0-----|-----------0--2--|--2h-4----2--0--|
A||--------------|--0h--2----------|----------------|
E||--------------|-----------------|----------------|


1 - 2 sloka
G D
S S E E E E E E E E E E E
-----------------||------------------------|--------------|
--------3-----3--||---------------3-----3--|-----3-----3--|
--------0-----0--||*--------------2-----2--|-----2-----2--|
-----------0-----||*--0--------------------|--0-----------|
--0h--2----------||------------------0-----|--------0-----|
-----------------||------------------------|--------------|


G D G D
S S E E E E E E E S S E E E E E E E
----------------|--------------|----------------|--------------|
-------3-----3--|-----3-----3--|-------3-----3--|-----3-----3--|
-------0-----0--|-----2-----2--|-------0-----0--|-----2-----2--|
----------0-----|--0-----------|----------0-----|--0-----------|
--0h-2----------|--------0-----|--0h-2----------|--------0-----|
----------------|--------------|----------------|--------------|


A7 D
E E E E E E E E E E E E E E E E
--------------|--------------|--------------|--------------|
-----3-----3--|-----2-----2--|-----3-----3--|-----3-----3--|
-----2-----2--|-----0-----0--|-----2-----2--|-----2-----2--|
--0-----0-----|--------2-----|--0-----------|--0-----------|
--------------|--0-----------|--------0-----|--------0-----|
--------------|--------------|--------------|--------------|


G D G D
S S E E E E E E E S S E E E E E E E
----------------|--------------|---------------|--------------|
-------3-----3--|-----3-----3--|------3-----3--|-----3-----3--|
-------0-----0--|-----2-----2--|------0-----0--|-----2-----2--|
----------0-----|--0-----------|---------0-----|--0-----0-----|
--0h-2----------|--------0-----|--0-2----------|--------------|
----------------|--------------|---------------|--------------|



A7 D
E E E E E E E E H
--------------|--------------|------------||
-----2-----2--|-----3-----3--|--3---------||
-----0-----0--|-----2-----2--|--2--------*||
--------2-----|--0-----------|--0--------*||
--0-----------|--------0-----|------------||
--------------|--------------|------------||

od 3 sloky

E E E E E E E E E E E E E E E E

||--x-----x-----|--x--x--x--x--|--x-----x-----|--x--x--x--x--||
d d d n d n d d d n d n


refren

E E E E E E E E E E E E E E E E

||--x-----x-----|--x--x--x--x--|--x-----x-----|--x--x--x--x--||
d d d n d n d d d n d n


simple tab (ze zvuk.ukázky) v pdf:
https://www.dropbox.com/s/cgiyuxo1g4cqktc/Spalen%C3%BD%2CPetr_Hr%C3%A1%C4%8D.pdf

full performance tab
https://www.dropbox.com/s/vpzsfo2x1ea9c6o/
Sp%C3%A1len%C3%BD%2C%20Petr%20-%20Hr%C3%A1%C4%8D%20-%20full%20performance.pdf

Rytmus
d - hra trsatkem dolu
n - hra trsatkem nahoru


Duration Legend
---------------
W - cela
H - pulova
Q - ctvrtova
E - 8nova
S - 16tinova
T - 32tinova
X - 64tinova
. - nota s teckou
|-n-| - n-tuplets


Tablature Legend
----------------
L - tied note
x - dead note
g - grace note
(n) - ghost note
> - accentuded note
NH - natural harmonic
AH - artificial harmonic
TH - tapped harmonic
SH - semi harmonic
PH - pitch harmonic
h - hammer on
p - pull off
b - bend
br - bendRelease
pb - preBend
pbr - preBendRelease
brb - bendReleaseBend
\n/ - tremolo bar dip
\n - tremolo bar dive
-/n - tremolo bar Release up
/n\ - tremolo bar inverted dip
/n - tremolo bar return
-\n - tremolo bar Release down
S - shift slide
s - legato slide
/ - slide into from below or out of upwards
\ - slide into from above or out of downwards
~ - vibrato
W - wide vibrato
tr - trill
TP - tremolo picking
T - tapping
S - slap
P - pop
< - fade in
^ - brush up
v - brush down

 
»
Tvoje obľúbené položky
Tvoje obľúbené položky
»
Nové albumy interpreta
Nové albumy interpreta
6
3xCD Spaleny Petr Dite stesteny - nej. hity 1967 - 2010
3xCD Dite stesteny -
nej. hity 1967 -
2010
6xCD Varoius 100 nej country
6xCD 100 nej country
CD Spaleny Petr Bylo fajn ... 20 originalnich hitu 1969 - 2008
CD Bylo fajn ... 20
originalnich
hitu 1969 - 2008
2xCD Spaleny Petr Obycejny muz / to nejlepsi 1967-2004
2xCD Obycejny muz /
to nejlepsi
1967-2004

»
Najnovšie videá
Najnovšie videá

Petr Splen - Hr

Petr Splen & Apollo Band

Petr Splen - Je to trest

Petr Splen - Kdyz ji potks

Petr Splen - Josefna

Petr Splen - Obyejn mu
»
Najnavštevovanejšie piesne
Najnavštevovanejšie piesne
Montgomery - akordy a text

Až mě andělé - akordy a text

Trápím se,trápím - akordy a text

Kdybych já byl kovářem (správně) - akordy a text

Obyčejný muž - akordy a text

Kdybych já byl kovářem - akordy a text

Hráč - akordy a text

Hráč - taby

Dáma při těle - akordy a text

Podivný hry lidí správně - akordy a text

BABY - akordy a text

Dítě štěstěny - akordy a text

Když ji potkáš - akordy a text

To vadí (Obladi,oblada) - akordy a text

Trápím se, trápím - akordy a text

Plakalo bejby - akordy a text

Josefína - akordy a text

Je to trest - akordy a text

Obyčejná žena - akordy a text

Šedesátý léta - akordy a text

viac




home | interpreti | register piesní | cd & dvd shop | pripomienky/nápady | kontakt | ochrana údajov | inzercia

TOPlist