Pavel Bobek

piesne (61)

  texty (55) / preklady (0)
  akordy (47) / taby (5)
  noty (0) / slideshow (0)

články (55)
fotogaléria
diskusia
videá
diskografia
v obchode
odkazy
koncerty
sťahuj



pridaj vlastný článok

Pavel Bobek:
Zomrel Pavel Bobek :( - Vo veku 76 rokov dnes zomrel český spevák Pavel Bobek. Známy hudobník posledný raz vydých...


Pavel Bobek:
Nautilus Zdeňka Rytíře (online album) - Hodnotenie: 10 / 10 Pošli na Facebook Pošli na Twitter Pošli na Googl... - server.sk


Pavel Bobek:
Vážná nemoc Pavla Bobka: Rozkládá se mu kůže! - 8. února 2013 9:57 Legenda české country Pavel Bobek (75) má v posledních letech víc st... - super.cz


Pavel Bobek:
Pavel Bobek v Malostranské besedě - PR Podruhé v lednu vás zveme do Malostranské besedy. Ve stř... - folktime.cz


Pavel Bobek:
Žlutý pes, Petr Kolář nebo Pavel Bobek zahrají na Slavnostech svijanského piva - ireport.cz


Pavel Bobek:
Vyšlo nové album Pavla Bobka – Kruhy - countryworld.cz


Pavel Bobek:
Pavel Bobek: Zpívat lidem mě dělá mladším - novinky.cz


Pavel Bobek:
Pavel Bobek zpívá o smíření se životem - novinky.cz


Pavel Bobek:
Pavel Bobek vydáva tento týždeň nový album Kruhy a chystá sa na veľké koncerty k
75. narodeninám.
- Na album zaradil coververzie piesní E. Claptona, G. Cladwella, M. Hollidaya, Ch. Cornel...


Pavel Bobek:
Pavel Bobek změnil názor a vydá nové album s názvem Kruhy - ceskenoviny.cz


 

Pavel Bobek

Fanúšikov: 3



A B C Č D E F G H CH I J K L Ľ M N O P Q R S Š T U V W X Y Z Ž



ako:
Pavel Bobek - Veď mě dál cesto má (fingerstyle ver)
Pavel Bobek - Veď mě dál cesto má (fingerstyle ver)

tlač

edituj
V originále: Country Road (Take Me Home)
Poznámka: vložen odkaz na tab podle kytaristy doprovázejícího J.Denvera... jednoduchý ale moc sympatický doprovod pro tuto písničku!!!

Pesničku videlo 5217 návštevníkov.

Kvalita tabov : bez hodnotenia
Hodnotilo ľudí: 0 ohodnoť aj ty
Prispievateľ:

petr554
Autor hudby: John Denver
                        Veď mě dál cesto má                           
Pavel Bobek

Fingerpicking Guitar
Takt 4/4


S S S S S S E E S S S S S S S S S S S S E E S S S S S S
E||-----------------0--------0-----|-----------------7--------7-----|
B||--------0-------------0-------0-|--------7-------------7-------7-|
G||----1-------1-------1-------1---|----8-------8-------8-------8---|
D||------2-------2---------2-------|------9-------9---------9-------|
A||----------2---------------------|----------9---------------------|
E||--0--------------0--------------|--7--------------7--------------|


S S S S S S E E S S S S S S S S S S S S E E S S S S S S
-----------------5--------5-----|-----------------0--------0-----|
--------5-------------5-------5-|--------0-------------0-------0-|
----6-------6-------6-------6---|----1-------1-------1-------1---|
------7-------7---------7-------|------2-------2---------2-------|
----------7---------------------|----------2---------------------|
--5--------------5--------------|--0--------------0--------------|


S S S S S S E E S S S S S S S S S S S S E E S S S S S S
|------------------0--------0-----|-----------------4--------4-----|
|---------0-------------0-------0-|--------5-------------5-------5-|
|*----1-------1-------1-------1---|----6-------6-------6-------6---|
|*------2-------2---------2-------|------6-------6---------6-------|
|-----------2---------------------|--4--------------4--------------|
|---0--------------0--------------|----------4---------------------|


S S S S S S E E S S S S S S S S S S S S E E S S S S S S
-----------------7--------7-----|-----------------0--------0-----|
--------7-------------7-------7-|--------5-------------0-------0-|
----8-------8-------8-------8---|----6-------6-------1-------1---|
------9-------9---------9-------|------7-------7---------2-------|
----------9---------------------|----------7---------------------|
--7--------------7--------------|--5--------------0--------------|


S S S S S S E E S S S S S S S S S S S S E E S S S S S S
-----------------0--------0-----|-----------------4--------4-----|
--------0-------------0-------0-|--------5-------------5-------5-|
----1-------1-------1-------1---|----6-------6-------6-------6---|
------2-------2---------2-------|------6-------6---------6-------|
----------2---------------------|--4--------------4--------------|
--0--------------0--------------|----------4---------------------|


S S S S S S E E S S S S S S S S S S S S E E E E E
-----------------7--------7-----|-----------------0-----------|
--------7-------------7-------7-|--------5--------0-----------|
----8-------8-------8-------8---|----6-------6----1-----------|
------9-------9---------9-------|------7-------7-----------1--|
----------9---------------------|----------7---------2--4-----|
--7--------------7--------------|--5--------------0-----------|


S S S S S S E E S S S S S S S S S S S S E E S S S S S S
-----------------0--------0-----|-----------------7--------7-----|
--------0-------------0-------0-|--------7-------------7-------7-|
----1-------1-------1-------1---|----8-------8-------8-------8---|
--2---2-------2---------2-------|------7-------7---------7-------|
----------2---------------------|----------9---------------------|
--0--------------0--------------|--7--------------7--------------|


S S S S S S E E S S S S S S S S S S S S E E S S S S S S
-----------------4--------4-----|-----------------5--------5-----|
--------5-------------5-------5-|--------5-------------5-------5-|
----6-------6-------6-------6---|----6-------6-------6-------6---|
------6-------6---------6-------|------7-------7---------7-------|
--4--------------4--------------|----------7---------------------|
----------4---------------------|--5--------------5--------------|


S S S S S S E E S S S S S S S S S S S S E E S S S S S S
-----------------0--------0-----|-----------------7--------7-----|
--------0-------------0-------0-|--------7-------------7-------7-|
----1-------1-------1-------1---|----8-------8-------8-------8---|
------2-------2---------2-------|------7-------7---------7-------|
----------2---------------------|----------9---------------------|
--0--------------0--------------|--7--------------7--------------|


S S S S S S E E S S S S S S S S S S S S E E S S S S S S
-----------------5--------5-----|-----------------0--------0------||
--------5-------------5-------5-|--------0-------------0-------0--||
----6-------6-------6-------6---|----1-------1-------1-------1---*||
------7-------7---------7-------|------2-------2---------2-------*||
----------7---------------------|----------2----------------------||
--5--------------5--------------|--0--------------0---------------||


S S S S S S S S S S S S S S S S S S S S S S E E S S S S S S
----4-------4-------2-------2-----|-----------------0--------0-----|
--------5-------5-------4-------4-|--------0-------------3-------3-|
------6-------6-------4-------4---|----1-------1-------1-------1---|
----------6---------------4-------|------2-------2---------2-------|
--4---------------2---------------|----------2---------------------|
----------------------------------|--0--------------0--------------|


S S S S S S E E S S S S S S S S S S S S E E S S S S S S
-----------------5--------5-----|-----------------7--------7-----|
--------5-------------5-------5-|--------7-------------7-------7-|
----6-------6-------6-------6---|----8-------8-------8-------8---|
------7-------7---------7-------|------9-------9---------9-------|
----------7---------------------|----------9---------------------|
--5--------------5--------------|--7--------------7--------------|


E S S S S S S E S S S S S S E S S S S S S E S S S S S S
--0--------0--------------------|--------------------------------|
-------0-------0-3--------3-----|--2--------2-----0--------0-----|
-----1-------1--------2-------2-|-------2-------2------1-------1-|
---------2----------4-------4---|-----2-------2------2-------2---|
-----------------5------0-------|--0---------------------2-------|
--0-----------------------------|---------0-------0--------------|


S S S S S S E E S S S S S S S S S S S S E H
-----------------7--------7-----|------------------7--------|
--------7-------------7-------7-|--------7--------10--------|
----8-------8-------8-------8---|----8-------8-----8--------|
------9-------9---------9-------|------9-------9------------|
----------9---------------------|----------9----------------|
--7--------------7--------------|--7---------------7--------|


S S S S S S E E S S S S S S S S S S S S E E S S S S S S
-----------------0--------0-----|-----------------7--------7-----|
--------0-------------0-------0-|--------7-------------7-------7-|
----1-------1-------1-------1---|----8-------8-------8-------8---|
--2---2-------2---------2-------|------7-------7---------7-------|
----------2---------------------|----------9---------------------|
--0--------------0--------------|--7--------------7--------------|


S S S S S S E E S S S S S S S S S S S S E E S S S S S S
-----------------4--------4-----|-----------------5--------5-----|
--------5-------------5-------5-|--------5-------------5-------5-|
----6-------6-------6-------6---|----6-------6-------6-------6---|
------6-------6---------6-------|------7-------7---------7-------|
--4--------------4--------------|----------7---------------------|
----------4---------------------|--5--------------5--------------|


S S S S S S E E S S S S S S S S S S S S E E S S S S S S
-----------------0--------0-----|-----------------7--------7-----|
--------0-------------0-------0-|--------7-------------7-------7-|
----1-------1-------1-------1---|----8-------8-------8-------8---|
------2-------2---------2-------|------7-------7---------7-------|
----------2---------------------|----------9---------------------|
--0--------------0--------------|--7--------------7--------------|


S S S S S S E E S S S S S S S S S S S S E E E E E
-----------------5--------5-----|-----------------0-----------|
--------5-------------5-------5-|--------0--------0-----------|
----6-------6-------6-------6---|----1-------1----1-----------|
------7-------7---------7-------|------2-------2--2--------1--|
----------7---------------------|----------2------2--2--4-----|
--5--------------5--------------|--0--------------0-----------|


S S S S S S E E S S S S S S S S S S S S E E S S S S S S
-----------------0--------0-----|-----------------7--------7-----|
--------0-------------0-------0-|--------7-------------7-------7-|
----1-------1-------1-------1---|----8-------8-------8-------8---|
--2---2-------2---------2-------|------7-------7---------7-------|
----------2---------------------|----------9---------------------|
--0--------------0--------------|--7--------------7--------------|


S S S S S S E E S S S S S S S S S S S S E E S S S S S S
-----------------4--------4-----|-----------------5--------5-----|
--------5-------------5-------5-|--------5-------------5-------5-|
----6-------6-------6-------6---|----6-------6-------6-------6---|
------6-------6---------6-------|------7-------7---------7-------|
--4--------------4--------------|----------7---------------------|
----------4---------------------|--5--------------5--------------|


S S S S S S E E S S S S S S S S S S S S E E S S S S S S
-----------------0--------0-----|-----------------7--------7-----|
--------0-------------0-------0-|--------7-------------7-------7-|
----1-------1-------1-------1---|----8-------8-------8-------8---|
------2-------2---------2-------|------7-------7---------7-------|
----------2---------------------|----------9---------------------|
--0--------------0--------------|--7--------------7--------------|


S S S S S S E E S S S S S S S S S S S S E E S S S S S S
-----------------5--------5-----|-----------------0--------0-----|
--------5-------------5-------5-|--------0-------------0-------0-|
----6-------6-------6-------6---|----1-------1-------1-------1---|
------7-------7---------7-------|------2-------2---------2-------|
----------7---------------------|----------2---------------------|
--5--------------5--------------|--0--------------0--------------|


S S S S S S E E S S S S S S S S S S S S E E S S S S S S
-----------------5--------5-----|-----------------0--------0-----|
--------5-------------5-------5-|--------0-------------0-------0-|
----6-------6-------6-------6---|----1-------1-------1-------1---|
------7-------7---------7-------|------2-------2---------2-------|
----------7---------------------|----------2---------------------|
--5--------------5--------------|--0--------------0--------------|


S S S S S S E E S S S S S S S S S S S S E E S S S S S S
-----------------5--------5-----|-----------------0--------0-----|
--------5-------------5-------5-|--------0-------------0-------0-|
----6-------6-------6-------6---|----1-------1-------1-------1---|
------7-------7---------7-------|------2-------2---------2-------|
----------7---------------------|----------2---------------------|
--5--------------5--------------|--0--------------0--------------|


H H
--0-----------------||
--0-----------------||
--1-----------------||
--2-----------------||
--2-----------------||
--0-----------------||


v pdf:
https://www.dropbox.com/s/9sn95ea6yu4saxn/
Bobek%2CPavel_Ved%20me%20dal%20cesto%20ma_ver2_rytm-gtr.pdf

tab podle kytaristy doprovázejícího J.Denvera v pdf:
https://www.dropbox.com/s/3u0gepdeldtri7h/
Bobek%2CP-Ved_me_dal_cesto_ma-Denver_ver.pdf

Duration Legend
---------------
W - whole
H - half
Q - quarter
E - 8th
S - 16th
T - 32nd
X - 64th
. - note dotted
|-n-| - n-tuplets


Tablature Legend
----------------
L - tied note
x - dead note
g - grace note
(n) - ghost note
> - accentuded note
NH - natural harmonic
AH - artificial harmonic
TH - tapped harmonic
SH - semi harmonic
PH - pitch harmonic
h - hammer on
p - pull off
b - bend
br - bendRelease
pb - preBend
pbr - preBendRelease
brb - bendReleaseBend
\n/ - tremolo bar dip
\n - tremolo bar dive
-/n - tremolo bar Release up
/n\ - tremolo bar inverted dip
/n - tremolo bar return
-\n - tremolo bar Release down
S - shift slide
s - legato slide
/ - slide into from below or out of upwards
\ - slide into from above or out of downwards
~ - vibrato
W - wide vibrato
tr - trill
TP - tremolo picking
T - tapping
S - slap
P - pop
< - fade in
^ - brush up
v - brush down

 
»
Tvoje obľúbené položky
Tvoje obľúbené položky
»
Nové albumy interpreta
Nové albumy interpreta
8xCD Bobek Pavel Elpicka 1975-1993 box
8xCD Elpicka
1975-1993 box
5xCD Gott Karel Duety
5xCD Duety
2xCD Bobek Pavel Pratele
2xCD Pratele
2xCD Bobek Pavel V lucerne/dvd
2xCD V lucerne/dvd
2xCD Bobek Pavel Vsem, divkam../2cd
2xCD Vsem,
divkam../2cd
2xCD Bobek Pavel Kruhy rozsirena edice
2xCD Kruhy rozsirena
edice

»
Najnovšie videá
Najnovšie videá

Pavel Bobek - Ved me dal, cesto ma

Pavel Bobek - Veď mě dál cesto má

Pavel Bobek - Ved mě dál cesto má /

sample Pavel Bobek ved me dal cesto ma a

Pavel Bobek - Veď mě dál, cesto má

Veď mě dál, cesto má / P. Bobek.
»
Najnavštevovanejšie piesne
Najnavštevovanejšie piesne



home | interpreti | register piesní | cd & dvd shop | pripomienky/nápady | kontakt | ochrana údajov | inzercia
Copyright © Pavol Bacigál, 2000-2017. Všetky práva vyhradené.
TOPlist