Jaromír Nohavica

piesne (871)

  texty (616) / preklady (97)
  akordy (505) / taby (122)
  noty (10) / slideshow (0)

články (222)
fotogaléria
diskusia
videá
diskografia
v obchode
odkazy
koncerty
sťahuj



pridaj vlastný článok

Jaromír Nohavica:
Foto: Nohavica v Dubline a Londýne - Fotografie z krátkého turné do Velké Británie a Irska - koncerty v Londýně a Dublinu. Hos... - nohavica.cz


Jaromír Nohavica:
Svou káru táhnem dál: Jaromír Nohavica a Kapela - Jaromír Nohavica autor: Česká televize zvětšit obrázek Svou káru táhnem dál: Jaromí... - scena.cz


Petr Hapka:
JAREK NOHAVICA ZPÍVÁ PÍSEŇ PRO HAPKU - Jaromír Nohavica zhudebnil a nazpíval text Michala Horáčka věnovaný Petru Hapkovi. Mic... - youtube.com


Jaromír Nohavica:
Sarkastická Nohavicova pieseň unikla na internet: Drsná provokácia slovenských
hokejistov!
- Sarkastická Nohavicova pieseň unikla na internet: Drsná provokácia slovenských hokejistov... - cas.sk


Jaromír Nohavica:
Nohavica zložil skladbu pre slovenských hokejistov - Český pesničkár Jaromír Nohavica predstavil počas tohtotýždňového turné v Bratislave špec...


Jaromír Nohavica:
Boris Urbánek píše s Nohavicou operu o Juditě - Jarek Nohavica Operu na motivy starozákonního příběhu o Juditě, známé ze slavného o... - novinky.cz


Korben Dallas:
Valašský špalíček ohlašuje samé písničkáře - DNES | Autor: Libor Galia | sekce: festivaloviny Valašský špalíček 2013, ... - muzikus.cz


Jaromír Nohavica:
Liberec, Chomutov, Teplice. Nohavica opět pobaví sever - Jarek Nohavica. Severní Čechy - Máte vstupenky? Ne? Ale ony už se nám ty zážitky rychl...


Karel Kryl:
Nohavica hral a spieval Kryla. K jeho nedožitým sedemdesiatinám - Nohavica hral a spieval Kryla. K jeho nedožitým sedemdesiatinám Pr i počúvaní priam... - sme.sk


Jaromír Nohavica:
Do prodeje jdou další lístky na pražské koncerty Jaromíra Nohavici - musicserver.c... - musicserver.cz


 

Jaromír Nohavica

Fanúšikov: 259



A B C Č D E F G H CH I J K L Ľ M N O P Q R S Š T U V W X Y Z Ž



ako:
Jaromír Nohavica - Tri rohy penalta - intro
Jaromír Nohavica - Tri rohy penalta - intro

tlač

edituj
Pesničku videlo 3002 návštevníkov.

Kvalita tabov : bez hodnotenia
Hodnotilo ľudí: 0 ohodnoť aj ty
Prispievateľ:

mahal
  *** Autor textu: Jaromir Nohavica *** Autor hudby: Jaromir Nohavica
tri rohy penalta                                                                                       

(/) Slide Up (\) Slide Down (h) Hammer On (p) Pull Off (b) Bend (r) Release (v) Vibrato



e|----------------------------------------------------------
B|----------------------------------------------------------
G|--9--7--------------------------9-v10---7-------------7---
D|-------10--9--10--v7-----7-7/10------------10--9--10------
A|----------------------7-----------------------------------
E|----------------------------------------------------------

e|---------------------------------------------------------
B|----v10--8-----------------------------------------------
G|-----------10--10--9--9--7--9-----9--7-------------------
D|----------------------------------------10--9--10--7-----
A|-10---------------------------------------------------7--
E|---------------------------------------------------------


e|-------------------------------------------------
B|-------------------------------------------------
G|--------9--10--7-------------7------10--9--7-v9--
D|7-7/10------------10--9--10----------------------
A|-------------------------------10----------------
E|-------------------------------------------------

 
»
Tvoje obľúbené položky
Tvoje obľúbené položky
»
Nové albumy interpreta
Nové albumy interpreta
CD Nohavica Jaromir Tenkrat-nostalgie 90 let
CD Tenkrat-nostalgi
e 90 let
CD Nohavica Jaromir Divne stoleti
CD Divne stoleti
4xCD Nohavica Jaromir Box [mikym./3cunici/darmodej/divne stole
4xCD Box
[mikym./3cunici/
darmodej/divne
stole
CD Nohavica Jaromir Tak me tu mas
CD Tak me tu mas
BD Nohavica Jarek V lucerne (blu-ray)
BD V lucerne
(blu-ray)
2xCD+DVD Nohavica Jaromir V lucerne
2xCD+DVD V lucerne

»
Najnovšie videá
Najnovšie videá

Jaromír Nohavica - Tři rohy penalta & Ro

Jarek Nohavica & Róbert Kušmiersky - Tri

Tri rohy penalta, Jaromir Nohavica (zazn

Jaromír Nohavica - Tři rohy = penalta

Tři rohy, penalta

Jarek Nohavica-Tři rohy penalta
»
Najnavštevovanejšie piesne
Najnavštevovanejšie piesne
Křídla z mýdla - akordy

Kometa - akordy a text

Mám jizvu na rtu - akordy a text

Minulost - akordy a text

Hlídač krav - akordy a text

Dokud se zpívá - pro začátečníky - akordy a text

Zítra ráno v pět - Originál - akordy a text

U nás na severu - akordy a text

Mám jizvu na rtu - doplněno - akordy

Kříž svůj neseme - akordy

viac




home | interpreti | register piesní | cd & dvd shop | pripomienky/nápady | kontakt | ochrana údajov | inzercia
Copyright © Pavol Bacigál, 2000-2017. Všetky práva vyhradené.
TOPlist