Hospital Bukra

piesne (41)

  texty (22) / preklady (0)
  akordy (12) / taby (13)
  noty (0) / slideshow (0)

články (15)
fotogaléria
diskusia
videá
diskografia
v obchode
odkazy
koncerty
sťahuj



pridaj vlastný článok

Alone:
Topfest o jeden deň dlší! - Najväčší slovenský rockový festival pridáva v roku 2010 okrem priestoru aj tzv.nul...


Alone:
TOPFEST 2010 AJ S CAVALEROU CONSPIRACY A TANEČNOU SCÉNOU! - TOPFEST 2010 AJ S CAVALEROU CONSPIRACY A TANEČNOU SCÉNOU! Prvý letný prázdninový...


Anawi:
Červeník: Na 43. ročníku Čechomor i Václav Neckář - ČERVENÍK: Na 43. ročníku dychovky,folklór, Čechomor i Václav Neckář Červení...


Alkehol:
Orava Rockfest štartuje v piatok v Námestove - Orava Rockfest štartuje v piatok v Námestove BRATISLAVA 29. júla (SITA) - Jeden z n...


Casualties:
HARDfest 2008 uzavrel svoj program - HARDfest 2008 uzavrel svoj program BRATISLAVA 12. júna (SITA) - HARDfest 2008, ako je...


Casualties:
Na druhom ročníku HARDfestu sa predstavia The Casualties - BRATISLAVA 10. marca (SITA) - Bohatá ponuka letných hudobných festivalov sa minulý rok...


Editor:
Najväčší punkový sviatok roka sa blíži! - Bleskovky - Kultura


Editor:
PUNK ISLAND VOL.6 - PUNK ISLAND VOL.6 20. – 21. júl 2007 Dobrohošť Najväčší punkoví sviatok r...


Arzén:
Slovenské, české hudobné zoskupenia rôznych žánrov v Červeníku - ČERVENÍK 2007 10. – 11. – 12. 08. 2007 42. krát bude nielen samotná obec Č...


A Tak:
Various - Slovak Underground Punx Attack! Vol. II - musicstyle.sk


 

Hospital Bukra

Fanúšikov: 13



A B C Č D E F G H CH I J K L Ľ M N O P Q R S Š T U V W X Y Z Ž



ako:
Hospital Bukra - Krvavé nebo
Hospital Bukra - Krvavé nebo

tlač

edituj
Rok vzniku: 2006
Pesničku videlo 1943 návštevníkov.

Kvalita tabov :
Hodnotilo ľudí: 1 ohodnoť aj ty
Prispievateľ:

elizion
Autor hudby: Hospital Bukra
intro/sloha

E|------------------------------------------------------------------
B|------------------------------------------------------------------
G|------------------------------------------------------------------
D|-0--0-0-0-0-0--8--8-8-8-8/7--5--5-5-5-5-5--8-8--10-10-10-10-------
A|-0--0-0-0-0-0--8--8-8-8-8/7--5--5-5-5-5-5--8-8--10-10-10-10-------
D|-0--0-0-0-0-0--8--8-8-8-8/7--5--5-5-5-5-5--8-8--10-10-10-10-------

druhá gitara


E|------------------------------------------------------------------
B|-------3----------------------------------------------------------
G|-----2------------------------------------------------------------
D|---0--------------------------------------------------------------
A|------------------------------------------------------------------
D|-0----------------------------------------------------------------


sólo 1

E|------------------------------------------------------------------
B|---------------------------------------------11p10------11p10-----
G|-10p9------10p9-----10p9--------10p9---------------10~--------10~-
D|------10~-------10~------10/12~------10~-12~----------------------
A|------------------------------------------------------------------
D|------------------------------------------------------------------

E|------------------------------------------------------------------
B|-11p10------------------------------------------------------------
G|-------10-12~--10/9-10/-------------------------------------------
D|------------------------------------------------------------------
A|------------------------------------------------------------------
D|------------------------------------------------------------------

medzihra ...v kaluži svojej krvi

E|------------------------------------------------------------------
B|------------------------------------------------------------------
G|------------------------------------------------------------------
D|-0---8---7---5--7/8-----------------------------------------------
A|-0---8---7---5--7/8-----------------------------------------------
D|-0---8---7---5--7/8-----------------------------------------------

sólo 2

E|------------------------------------------------------------------
B|------------------------------------------------------------------
G|---10-10br-----10-10br-9-7-------10p9----10p9----10p9-----10-10br-
D|-7---------7-8-------------10br-------10------10--------7---------
A|------------------------------------------------------------------
D|------------------------------------------------------------------

E|-------------------------------5-8br--6-6-6-5------6-6-6-5--------
B|-------------------------5-6-8----------------8-6~---------8-6~---
G|-----10-10br-9-7-5br-5-7------------------------------------------
D|-7-8--------------------------------------------------------------
A|------------------------------------------------------------------
D|------------------------------------------------------------------

E|-6-6-6-5--------------------------------------------13b(full)13b--
B|---------8-6-8-6-8b-8br-6----10br-----10-10-9-7-------------------
G|---------------------------7------7-8-----------10----------------
D|------------------------------------------------------------------
A|------------------------------------------------------------------
D|------------------------------------------------------------------

vybrnkávačka na konci

E|-------------------------------------------------------1-0--------
B|---------3----------------3---------------3----------------1------
G|-----2-----2---2------2-----2---------2-----2--------0-------2-0--
D|---0---0-----0------0---0-----------0---0-----0-------------------
A|------------------1-----------1-0------------------3--------------
D|-0--------------------------------5-------------5-----------------

E|------------------------------------------------------------------
B|---------3----------------3---------------3--------------------3--
G|-----2-----2---2------2-----2---------2-----2----------2-----0---0
D|---0---0-----0------0---0-----------0---0-----0------0---0--------
A|------------------1-----------1-0---------------------------------
D|-0--------------------------------5-------------5--3-------2------

E|------------------------------------------------------------------
B|---------3--------------------------------------------------------
G|-------2----------------------------------------------------------
D|-----0------------------------------------------------------------
A|---0--------------------------------------------------------------
D|-0----------------------------------------------------------------

 
»
Tvoje obľúbené položky
Tvoje obľúbené položky
»
Nové albumy interpreta
Nové albumy interpreta
6

»
Najnovšie videá
Najnovšie videá

Hospital Bukra Krvav Nebo

Hospital Bukra - Krvav nebo - Zatl

Hospital Bukra

Hospital Bukra - Star pani

Hospital Bukra - Iny nebudem

Hospital Bukra - Johny phm
»
Najnavštevovanejšie piesne
Najnavštevovanejšie piesne
Stará pani - text

Stará pani - akordy

Stará Paní - akordy a text

Stará pani - taby

Stara pani-intro 100%presne - taby

Anča - akordy a text

Motorova - intro - taby

DOKTOR NOTOR 1 - akordy a text

Stara Pani ?! - taby

Uštvané zviera - oprava - akordy a text

Stará pani - SOLO - taby

Stará pani - complet - taby

V Krajine Bohov - taby

Krvavé nebo - taby

Trpaslík - akordy

Hlava - akordy

Krvave nebo - text

Anca - text

Doktor Notor - akordy

Uštvané zviera - text

viac




home | interpreti | register piesní | cd & dvd shop | pripomienky/nápady | kontakt | ochrana údajov | inzercia

TOPlist