Wohnout

piesne (158)

  texty (122) / preklady (0)
  akordy (62) / taby (26)
  noty (0) / slideshow (0)

články (244)
fotogaléria
diskusia
videá
diskografia
v obchode
odkazy
koncerty
sťahuj



pridaj vlastný článok

Abraxas:
Votvírák – s novou vlnou předprodeje připlouvá i Pavol Habera & Team - 8 Duben 2017 David Nguyen Žádné komentáře Novinky Votvírák – s novou vlnou... - rockandpop.cz


Celeste Buckingham:
TOP 8 klipů týdne (112.): Top Dream Company uvádějí Xenofobní stát,
Carmel Buckingham je víc než jen sestra Celeste
- Vydáno před 20 hodinami | autor: Hana Bukáčková Tento týden v našem klipov... - ireport.cz


Eva Pilarová:
Wohnout oslavili na Vyžlovce Sladkých dvacet i s Evou Pilarovou - Vydáno před 13 hodinami Facebook15 Twitter0 Google+0 Kapela Wohnout si letos při... - ireport.cz


Wohnout:
Wohnouti na svůj open air zvou řadu hostů, chybět nebude ani Eva Pilarová - Wohnouti na svůj open air zvou řadu hostů, chybět nebude ani Eva Pilarová Vydáno... - musicserver.cz


Wohnout:
Dvacetiny s Wohnout oslaví řada hostů - Dvacetiny s Wohnout oslaví řada hostů Autor: Iva Boková 13.06.2016 Tisk Skupina ... - abradio.cz


Richard Krajčo:
POST SCRIPTUM (44): "Namyšlený" Richard Krajčo a "závistivý" Matěj Homola
aneb Jak se v Česku dělá z komára velbloud
- Vydáno 05.05.2016 | autor: Simona Knotková Facebook38 Twitter0 Google+0 Co se šká... - ireport.cz


Atmo Music:
Okoř se šťávou představuje program: Vystoupí Slza, ATMO Music, Rybičky
48, UDG, Voxel, Wohnout i Visací zámek
- Vydáno před 22 hodinami | autor: redakce Facebook368 Twitter0 Google+0 Už 18. roč... - ireport.cz


Wohnout:
REPORT: Wohnouti slavili dvacetiny. Sáhli i po neznámých kusech - Liberec /FOTOGALERIE/ - Na libereckém koncertu si fanoušci užili starší kousky, kter... - denik.cz


Wohnout:
Wohnout: Postoj zaujmeme, až někdo zdraží pivo na 200 korun - 12. 3. 2016 kapela Wohnout (zleva Matěj Homola, Honza Homola, Zdeněk Steiner, Jirka Ze... - aktualne.cz


Wohnout:
Wohnout slaví dvacítku a sahá do prehistorie - Minulý pátek odstartovala pražská rocková skupina Wohnout v Jihlavě koncertní turn... - novinky.cz


 

Wohnout

Fanúšikov: 29



A B C Č D E F G H CH I J K L Ľ M N O P Q R S Š T U V W X Y Z Ž



ako:
Wohnout - Díky moc!
Wohnout - Díky moc!

tlač

edituj
Rok vzniku: 2014
Pesničku videlo 3416 návštevníkov.

Kvalita tabov :
Hodnotilo ľudí: 1 ohodnoť aj ty
Prispievateľ:

rododendron
  *** Autor textu: Wohnout *** Autor hudby: Wohnout
Wohnout 
Díky moc!
Laskonky a kremrole 2014

Standard E Tuning
tempo = 124 bpm



Tak jsem vstal a rozepnul si voči,
kouknul se doprava, pak zrak doleva stočil.
A tam jsem psa pohladil proti srsti,
tohle zvíře mě má už hodně dlouho v hrsti.


e|----------------------------|--------------------------------|
B|----------------------------|--------------------------------|
G|------5---5---5----7brb~----|--7brb~b--7p5---5---------------|
D|--/7----7---7---7-----------|--------------7------7p5---5--7-|
A|----------------------------|-------------------------7------|
E|----------------------------|--------------------------------|

e|------------------------------|
B|------------------------------|
G|------------------------------|
D|------------------------------|
A|---5-3------------------------|
E|-------5----------------------|

e|----------------------------|--------------------------------|
B|----------------------------|--------------------------------|
G|------5---5---5----7brb~----|--7brb~b--7p5---5___5/24--------|
D|--/7----7---7---7-----------|--------------7-----------------|
A|----------------------------|--------------------------------|
E|----------------------------|--------------------------------|



Am D Dm(Dm7+) Am Am D Dm(Dm7+) F G
e|--5----------5--(8)----5-------|-5----------5--(8)----x---x---|
B|--5-----7----6--(6)----5-------|-5-----7----6--(6)----1---3---|
G|--5-----7----7--(7)----5-------|-5-----7----7--(7)----2---4---|
D|--7-----7--------------7-------|-7-----7--------------3---5---|
A|-------------------------------|----------------------3---5---|
E|-------------------------------|----------------------1---3---|

Am D Dm Am
Am D Dm F G


Pak jsem si uvařil trošku čaje,
votevřel vokno a uviděl jak sníh taje.
Je krásnej den a venku čeká parta,
soudě dle počasí, nám vyšla dobrá karta.

Jedou do pekla malý vláčky,
možná maj volný sedačky,
tak si račte nastoupit.
Průvodčí mává průkazem,
průkaz je toho důkazem,
že i vy jste si měli lístek zakoupit.

Am D
Možná, že nebudete souhlasit,
Dm Am
nesouhlasit, nesouhlasit,
Am D
ale bohužel děláme potíže,
Dm
ať každej si,
F G
díky moc!




Am D
Krásnej den uplynul jako voda,
Dm Dm7+ Am
zůstat večer doma by byla asi škoda,
Am D
tak půjdem dát šanci dekadenci,
Dm Dm7+ Am
vždyť historii někdy píšou taky psanci.

Jedou do pekla malý vláčky,
možná maj volný sedačky,
tak si račte nastoupit.

Průvodčí mává průkazem,
průkaz je toho důkazem,
F G
že i vy jste si měli lístek zakoupit.

Možná že nebudete souhlasit,
nesouhlasit, nesouhlasit,
ale bohužel děláme potíže,
ať každej jsi,
díky moc!


Bm E
Možná, že nebudete souhlasit,
Em Bm
nesouhlasit, nesouhlasit,
Bm E
ale bohužel děláme potíže,
Em
ať každej si,
G A
ať každej si,

Bm E
díky moc!
Em Bm
Díky moc!

Díky moc!
Díky moc!

Díky moc!
Díky moc!

Díky moc!
Díky moc!
A dobrou noc!

 
»
Tvoje obľúbené položky
Tvoje obľúbené položky
»
Nové albumy interpreta
Nové albumy interpreta
6
2xCD+DVD Wohnout Sladkych dvacet na vyzlovce (cd+dvd)
2xCD+DVD Sladkych dvacet
na vyzlovce
(cd+dvd)
CD Wohnout Laskonky a kremrole
CD Laskonky a
kremrole
2xCD Wohnout G2 acoustic stage/dvd
2xCD G2 acoustic
stage/dvd

»
Najnovšie videá
Najnovšie videá

WOHNOUT - DKY MOC!

Wohnout - Dky moc! (demoverze)

Wohnout - Dky moc! Live 4.7.2014 Zmeck

Wohnout - DKY MOC (Teb 2013)

Wohnout - Svaz eskch bohm (live Pra

Wohnout - Dky moc! (Mates feat Wohnout)
»
Najnavštevovanejšie piesne
Najnavštevovanejšie piesne
Svaz českých bohemů - akordy a text

Svaz českých bohémů - podle Homoly - akordy a text

Gastrosexuál - akordy a text

Svaz českých bohémů (komplet) - taby

Svaz českých bohémů - taby

Bárbíno - akordy a text

Pepíčci - akordy a text

Zpěvák na inzerát - akordy a text

Hledáme zpěváka - akordy a text

Svaz českých bohémů (téma) - taby

Ganga - akordy a text

Sejko-nopí - akordy a text

Popojedem - akordy a text

Vltavo - akordy a text

LSD - akordy a text

Fanynka - akordy a text

Díky moc - akordy a text

Ó,gramofón - akordy a text

Banány - akordy a text

Rayda - akordy a text

viac




home | interpreti | register piesní | cd & dvd shop | pripomienky/nápady | kontakt | ochrana údajov | inzercia

TOPlist