Rangers

piesne (97)

  texty (93) / preklady (0)
  akordy (68) / taby (1)
  noty (2) / slideshow (0)

články (28)
fotogaléria
diskusia
videá
diskografia
v obchode
odkazy
koncerty
sťahuj



pridaj vlastný článok

Rangers:
Weiss mieri na hosťovanie do Rangers, týždenne zarobí 20-tisíc libier - sme.sk - vikend


Arena:
Lodenica: Program hlavnej scény známy! - Bleskovky - Kultura


Bg Time:
Bratislava aj Košice budú cez víkend patriť folku a country - Bratislava aj Košice budú cez víkend patriť folku a country Tretí augustový víkend bud...


Pavel Bobek:
Zajtra začína Country Fest Rozmarín 2008 - 8. a 9. augusta v amfiteátri v Terchovej sa uskutoční 3. ročník festivalu Country Fest Roz...


Ag Flek:
Desítky kapel zdarma - lázeňská sezóna Teplice 2008 - Desítky kapel zdarma - lázeňská sezóna Teplice 2008 Slavnostní zahájení 854. lázeňské ... - supermusic.sk


Rangers:
Supraphon vydal koncertní 2CD Rangers - countryworld.cz


Beat:
Videokalendár na utorok 6.5. - Videokalendár na utorok 6.5. * 6. mája 1942 sa v Londýne narodil Colin Earl, hráč ...


Aku-aku:
Hudobný kalendár na pondelok 14. januára - Hudobný kalendár na pondelok 14. januára * 14. januára 1941 sa v Paríži narodila spevá...


Ivan Mládek:
Obľúbený IVAN MLÁDEK a čundrcountry show v SPARXE už 5.7.! - Obľúbený IVAN MLÁDEK a čundrcountry show v SPARXE už 5.7.! Máte radi zábavné historky,...


Rangers:
Legendárna country kapela RANGERS 21.6. v Sparxe! - Legendárna country kapela RANGERS 21.6. v Sparxe! Príďte si vychutnať legendárne sklad...


 

Rangers

Fanúšikov: 2



A B C Č D E F G H CH I J K L Ľ M N O P Q R S Š T U V W X Y Z Ž



ako:
Rangers - Romance 16.léta
Rangers - Romance 16.léta

tlač

edituj
V originále: Greenleeves
Pesničku videlo 3337 návštevníkov.

Kvalita tabov : bez hodnotenia
Hodnotilo ľudí: 0 ohodnoť aj ty
Prispievateľ:

petr554
Autor hudby: Tradicional

Takt 3/4

Šla pís kem, tvá á ře
pís kem, tou hy a

Am C
Q Q Q E E E E E E E E E E E E
E||-----------------||------------------------|--0------------1--0--|
B||-----------------||---1------------3-------|--1------------------|
G||------------2----||*---------2-------------|--0------0-----------|
D||-----------------||*------2-----2-------0--|--2---2-----2--------|
A||-----------------||---0------------2-------|--3------------------|
E||-----------------||------------------------|---------------------|


zá ří cí, slo va bral jí
vá há ní, bo sá

G Em Am
E E E E E E E E E E E E E E E E E E
--------------------|----------------------|----------------------|
--3-----------0-----|-------------------0--|--1-------------------|
--0-----0-----------|--0------0-----2------|--2-------2-----2-----|
--0--0-----0--------|--2---2-----2---------|--2----2-----2-----2--|
--------------------|----------------------|--0-------------------|
--3--------------3--|--0-------------------|----------------------|


z úst ví tr sí lí cí, šla

Dm/F E
E E E E E E E E E E Q H Q
-----------------------|-------------------|-----------------||
-----------------------|--0----------------|-----------------||
--2--------2-----1--2--|--------1-----1----|-----------2----*||
-------0------0--------|-----2-----2-------|--2-------------*||
-----------------------|-------------------|-----------------||
--1--------------------|--0----------------|--0--------------||


dí ven ka krá sná jak sví tá

Am E Am
E E E E Q E S S Q Q Q. E Q
--------------------|---------------------|-----------------|
--1---------0-------|---------------------|-----------------|
--------2------2----|--1h--2p-1------1----|--2------2-------|
-----2--------------|-----------4---------|------------2----|
--0-----------------|---------------------|--0--------------|
--------------------|--0------------------|-----------------|


Znám ten pí sek, ten
ní. jsem tvé dět ství, tvůj

C
H. E E E E E E E E E E Q
---------------||---3--------------------|--3---------2-----0----|
---------------||---1----------1---------|--1--------------------|
---------------||*--0-------0-----0------|--0------0-------------|
---------------||*--2----2------------2--|--2---2----------------|
--0------------||---3--------------------|--3--------------------|
---------------||------------------------|-----------------------|


ví tr, tu pláž, jsem tvá
sen, tvo je stráž, kte rá

G Em
E E E E E E E E E E E E
-----------------------|---------------------------|
--3-------------0------|-----------------------0---|
--0-------0------------|--0---------0-----2--------|
--0----0-----0---------|--2------2-----2-----------|
-----------------------|---------------------------|
--3-----------------2--|--0------------------------|


tou ha, jsem tvé vá há

Am Dm/F E
E E E E E E E E E E E E E E E E Q
----------------------|-----------------------|-------------------|
--1-------------------|-----------------------|--0----------------|
--2------2-----2------|--2-------2-----1---2--|--------1-----1----|
--2---2-----2------2--|-------0-----0---------|-----2-----2-------|
--0-------------------|-----------------------|-------------------|
----------------------|--1--------------------|--0----------------|


ní,
oh níč ky v o čích ti chrá

Am E
H. Q. E Q E S S Q Q
----------------||------------------|------------------------|
----------------||--1------0--------|------------------------|
---------------*||-------------2----|--1h--2p-1---------1----|
--2------------*||------------------|--------------4---------|
----------------||--0---------------|------------------------|
--0-------------||------------------|--0---------------------|


ní.

Am
H. H.
---------------|---------------||
---------------|---------------||
--2------------|---------------||
---------------|---------------||
--0------------|---------------||
---------------|---------------||

Tab v pdf:
https://www.dropbox.com/s/k731gt99rs8vbsl/
Romance%2016.t%C3%A9ho%20l%C3%A9ta.pdf


Duration Legend
---------------
W - whole
H - half
Q - quarter
E - 8th
S - 16th
T - 32nd
X - 64th
. - note dotted
|-n-| - n-tuplets


Tablature Legend
----------------
L - tied note
x - dead note
g - grace note
(n) - ghost note
> - accentuded note
NH - natural harmonic
AH - artificial harmonic
TH - tapped harmonic
SH - semi harmonic
PH - pitch harmonic
h - hammer on
p - pull off
b - bend
br - bendRelease
pb - preBend
pbr - preBendRelease
brb - bendReleaseBend
\n/ - tremolo bar dip
\n - tremolo bar dive
-/n - tremolo bar Release up
/n\ - tremolo bar inverted dip
/n - tremolo bar return
-\n - tremolo bar Release down
S - shift slide
s - legato slide
/ - slide into from below or out of upwards
\ - slide into from above or out of downwards
~ - vibrato
W - wide vibrato
tr - trill
TP - tremolo picking
T - tapping
S - slap
P - pop
< - fade in
^ - brush up
v - brush down

 
»
Tvoje obľúbené položky
Tvoje obľúbené položky
»
Nové albumy interpreta
Nové albumy interpreta
3xCD Rangers Zlata kolekce
3xCD Zlata kolekce
2xCD+DVD Rangers [plavci] Zlata deska rangers [1cd+1dvd]
2xCD+DVD Zlata deska
rangers
[1cd+1dvd]
CD Rangers [plavci] To nejlepsi potreti
CD To nejlepsi
potreti
CD Rangers [plavci] To nejlepsi z plavcu
CD To nejlepsi z
plavcu
CD Rangers [plavci] To nejlepsi
CD To nejlepsi
CD Rangers Nejvetsi pecky
CD Nejvetsi pecky

»
Najnovšie videá
Najnovšie videá

0041P Lady Green Sleeves by PLAVCI / Ran

Chvála Písni LP

Let's Play Romance of the Three Kingdoms

Rangers - Julianne

Rangers Poslední večeře.wmv

Rákosí - The Rangers 1970 / smlk /
»
Najnavštevovanejšie piesne
Najnavštevovanejšie piesne
Zvedněte kotvy - akordy a text

Rákosí - akordy a text

Vysočina - akordy a text

Pole s bavlnou - akordy a text

Otec a syn 2 - akordy a text

Nápis křídou - akordy

Romance 16.léta - taby

500 mil - akordy a text

Rocky Top - akordy a text

Dej Bože můj - akordy a text

viac




home | interpreti | register piesní | cd & dvd shop | pripomienky/nápady | kontakt | ochrana údajov | inzercia
Copyright © Pavol Bacigál, 2000-2017. Všetky práva vyhradené.
TOPlist