Nedvedi

piesne (326)

  texty (310) / preklady (1)
  akordy (193) / taby (8)
  noty (0) / slideshow (1)

články (35)
fotogaléria
diskusia
videá
diskografia
v obchode
odkazy
koncerty
sťahuj



pridaj vlastný článok

Honza Nedvěd:
Jazzmani se vrhli na Nedvěda, předělali »kotlíkářské hymny« - Znalost písní Jana Nedvěda je u táborových ohňů samozřejmostí, nyní si jejich melodie p... - halonoviny.cz


Honza Nedvěd:
Před 20 lety přišlo na Nedvědy na Strahově bezmála 70 000 lidí! Dnes už spolu
slavné bratry neuvidíte…
- Bratři Jan a František Nedvědovi už spolu nezpívají. Bratři Jan a František Nedvědovi už... - blesk.cz


Band A:
COUNTRYFEST BOHUNICE 2016 sa predstavuje - Willie Jones (Foto: Countryfest Bohunice) Willie Jones (Foto: Countryfest Bohunice... - countryworld.cz


Nedvedi:
Hudobníka Jana Nedvěda trápia finančné problémy: Strach o svoju budúcnosť - Hudobníka Jana Nedvěda trápia fnančné problémy: Strach o svoju budúcnosť" style="display:... - cas.sk


Brontosauři:
Pesničkár Honza Nedvěd stráca sluch. Hrozí mu, že ohluchne - Pesničkár Honza Nedvěd stráca sluch. Hrozí mu, že ohluchne Je psychicky na d... - aktuality.sk


Nedvedi:
Jan a František Nedvědi: Naše bratrské vztahy? Skvělé, jsme přece spolu na pódiu - denik.cz


Nedvedi:
Nedvědi – 44slavných písniček 2… a ještě něco navíc - muzikus.cz


Fešáci:
CD+DVD: Nedvědi po 10letech spolu na jednom podiu - Universal Music - Výroční koncert bratří Nedvědů po 10 letech opět spolu na jednom podiu !...


Nedvedi:
Nedvědi opäť spolu na záver jubilejnej Lodenice - Nedvědi opäť spolu na záver jubilejnej Lodenice Záver festivalovej sezóny v campe Pieš...


Arena:
LODENICA už za 20 dní - predpredaj vrcholí - LODENICA už za 20 dní - predpredaj vrcholí Program jubilejného 10. ročníka festivalu Z...


 

Nedvedi

Fanúšikov: 64



A B C Č D E F G H CH I J K L Ľ M N O P Q R S Š T U V W X Y Z Ž



ako:
Nedvedi - Řemeslo
Nedvedi - Řemeslo

tlač

edituj
V originále: Sundown
Pesničku videlo 3536 návštevníkov.

Kvalita tabov : bez hodnotenia
Hodnotilo ľudí: 0 ohodnoť aj ty
Prispievateľ:

petr554
  *** Autor textu: František Nedvěd *** Autor hudby: Gordon Lightfoot
(Capo 2)
Takt 4/4


Předehra
W W W
E||-------------------|-------------------|-------------------|
B||-------------------|-------------------|-------------------|
G||-------------------|-------------------|-------------------|
D||-------------------|-------------------|-------------------|
A||-------------------|-------------------|-------------------|
E||-------------------|-------------------|-------------------|


H E E E E H E E E E
-----------------------|-----------------------|
-----------------------|-----------------------|
--------------------5--|-----------------------|
--------------5--7-----|-----------------------|
-----------7-----------|--7--------L--------5--|
-----------------------|--------------0--7-----|


E E Q E E E E H E E E E
-------------------------|-----------------------|
-------------------------|-----------------------|
-------------------------|-----------------------|
----------------------5--|-----------------------|
--------7----L--0--------|--7--------L--0-----5--|
--0--7-------------7-----|-----------------7-----|


Sloka 1.
H. E E H. E E H. E E
---------------------|---------------------|----------------------|
---------------------|---------------------|----------------------|
---------------------|---------------------|----------------------|
------------------5--|---------------------|----------------------|
--L------------------|--7---------------5--|------------------1s--|
---------------------|---------------7-----|--0-------------------|


Q E E E E E E E E E E E Q.
--------------------------|--------------------------|
--------------------------|--------------------------|
--------------------------|--------------------------|
-------4--4-----4------4--|--------------------------|
--2----------2------------|------0------2--L---------|
-------------------3b-----|--3b-----3b--0--L--0------|


Refren
^
H E Q. W H. E E
|----------------------|--0----------------|---------------------|
|----------------------|--2----------------|--3------------L-----|
|*---------------------|--2----------------|--2------------L-----|
|*--------------2------|--2----------------|--4------------L-----|
|---------------2------|--0----------------|--0------------L--2--|
|------------0---------|-------------------|---------------0-----|


H E E E E Q E E E E Q
---0---------L--0--0--0---||------------------------|
---5---------L--5--3--5---||------------------------|
---4---------L--4-----4--*||--2----0----------------|
---2---------L-----------*||----------2--0--2--L----|
--(2)--------L------------||------------------------|
--(0)--------L------------||------------------------|


Sloka 2.
Q. E E E E E Q. E E E E E
--------------------------|------------------------|
--------------------------|------------------------|
--------------------------|------------------------|
--------------------------|------------------------|
-----------------5--7--7--|---------------5--7--0--|
--0--------x--7-----------|--0------0--7--------0--|


E E E E E E S S E Q. E E E E E
----------------------------|------------------------|
----------------------------|------------------------|
-----2-----2----------------|------------------------|
--4-----4--------4----------|---------------------5--|
--2-----------6-----6s-4-2--|--2------------5--7-----|
----------------------------|--0------0--7-----------|


Refren
^
H E Q. W H. E E
|----------------------|--0----------------|---------------------|
|----------------------|--2----------------|--3------------L-----|
|*--------------2------|--2----------------|--2------------L-----|
|*--------------2------|--2----------------|--4------------L-----|
|------------0---------|--0----------------|--0------------L--2--|
|----------------------|-------------------|---------------0-----|


H E E E E W H. E E
---0---------L--0--0--0---||-------------------|---------------------|
---5---------L--5--3--5---||-------------------|---------------------|
---4---------L--4-----4--*||-------------------|---------------------|
---2---------L-----------*||-------------------|---------------------|
--(2)--------L------------||-------------------|------------------5--|
--(0)--------L------------||-------------------|---------------7-----|


Sloka 3.
H E E Q W Q E E E E E E
-----------------------|-------------------|-------------------------|
-----------------------|-------------------|-------------------------|
-----------------------|-------------------|-------------------------|
-----------------5b----|-------------------|-------------------------|
-----------------------|--7----------------|----------5--L-----7--5--|
--0--------L--0--------|--0----------------|--0----7--------0--------|


Q E E E E Q E Q E E E E E
-------------------------|---------------------------|
-------9--7--------------|---------------------------|
-------9--7h--8----------|----------2br--L--0--------|
-----------------9--7----|---------------------2--0--|
-------------------------|---------------------------|
-------------------------|--0--0---------------------|


Refren
^ ^
W W H. E S S
|--------------------|-------------------|----------------------|
|--------------------|--2----------------|--3------------L------|
|*-------------------|--2----------------|--2------------L------|
|*--2----------------|--2----------------|--4------------L------|
|--------------------|--0----------------|--0------------L----2-|
|--------------------|-------------------|------------------0---|


Mezihra - Solo
H E E E E W W
--0--------L-----0--0---||-------------------|-------------------|
--5--------L-----3--5---||-------------------|-------------------|
--4--------L--------4--*||-------------------|-------------------|
--2--------L--2--------*||-------------------|-------------------|
------------------------||-------------------|-------------------|
------------------------||-------------------|-------------------|


W W W
-------------------|-------------------|-------------------|
-------------------|-------------------|-------------------|
-------------------|-------------------|-------------------|
-------------------|-------------------|-------------------|
-------------------|-------------------|-------------------|
-------------------|-------------------|-------------------|


W W W
-------------------|-------------------|-------------------|
-------------------|-------------------|-------------------|
-------------------|-------------------|-------------------|
-------------------|-------------------|-------------------|
-------------------|-------------------|-------------------|
-------------------|-------------------|-------------------|


W W W
-------------------|-------------------|-------------------|
-------------------|-------------------|-------------------|
-------------------|-------------------|-------------------|
-------------------|-------------------|-------------------|
-------------------|-------------------|-------------------|
-------------------|-------------------|-------------------|


W W W
-------------------|-------------------|-------------------|
-------------------|-------------------|-------------------|
-------------------|-------------------|-------------------|
-------------------|-------------------|-------------------|
-------------------|-------------------|-------------------|
-------------------|-------------------|-------------------|


Sloka 4
W Q. E E E E E Q. E E E E E
-------------------|------------------------|------------------------|
-------------------|------------------------|------------------------|
-------------------|------------------------|------------------------|
-------------------|------------------------|------------------------|
-------------------|---------------5--7--7--|---------------5--7--0--|
-------------------|--0------x--7-----------|--0------0--7--------0--|


E E E E E E S S E Q. E E E E E
----------------------------|------------------------|
----------------------------|------------------------|
-----2-----2----------------|------------------------|
--4-----4--------4----------|---------------------5--|
--2-----------6-----6s-4-2--|--2------------5--7-----|
----------------------------|--0------0--7-----------|


Refren
W W W
|--------------------|-------------------|-------------------|
|--------------------|-------------------|-------------------|
|*-------------------|-------------------|-------------------|
|*--2----------------|-------------------|-------------------|
|--------------------|-------------------|-------------------|
|--------------------|-------------------|-------------------|


E Q E E E E E W W
----------------------------||-------------------|-------------------|
-----5br----3---------------||-------------------|-------------------|
---------------4--3--2-----*||-------------------|-------------------|
------------2--5-----5--5--*||-------------------|-------------------|
-----2------------7-----7---||-------------------|-------------------|
----------------------------||-------------------|-------------------|


W W W
-------------------|-------------------|-------------------|
-------------------|-------------------|-------------------|
-------------------|-------------------|-------------------|
-------------------|-------------------|-------------------|
-------------------|-------------------|-------------------|
-------------------|-------------------|-------------------|


Dohra
W W W
-------------------|-------------------|-------------------|
-------------------|-------------------|-------------------|
-------------------|-------------------|-------------------|
-------------------|-------------------|-------------------|
-------------------|-------------------|-------------------|
-------------------|-------------------|-------------------|


W W W
-------------------|-------------------|-------------------|
-------------------|-------------------|-------------------|
-------------------|-------------------|-------------------|
-------------------|-------------------|-------------------|
-------------------|-------------------|-------------------|
-------------------|-------------------|-------------------|


W W
-------------------|-------------------||
-------------------|-------------------||
-------------------|-------------------||
-------------------|-------------------||
-------------------|-------------------||
-------------------|-------------------||

tab+ 12str.kytara+ el.solova kytara+ bas kytara v pdf:
https://www.dropbox.com/s/ppipdbqhu4c6zbb/
Nedv%C4%9Bdi%20-%20%C5%98emeslo.pdf



Duration Legend
---------------
W - whole
H - half
Q - quarter
E - 8th
S - 16th
T - 32nd
X - 64th
. - note dotted
|-n-| - n-tuplets


Tablature Legend
----------------
L - tied note
x - dead note
g - grace note
(n) - ghost note
> - accentuded note
NH - natural harmonic
AH - artificial harmonic
TH - tapped harmonic
SH - semi harmonic
PH - pitch harmonic
h - hammer on
p - pull off
b - bend
br - bendRelease
pb - preBend
pbr - preBendRelease
brb - bendReleaseBend
\n/ - tremolo bar dip
\n - tremolo bar dive
-/n - tremolo bar Release up
/n\ - tremolo bar inverted dip
/n - tremolo bar return
-\n - tremolo bar Release down
S - shift slide
s - legato slide
/ - slide into from below or out of upwards
\ - slide into from above or out of downwards
~ - vibrato
W - wide vibrato
tr - trill
TP - tremolo picking
T - tapping
S - slap
P - pop
< - fade in
^ - brush up
v - brush down

 
»
Tvoje obľúbené položky
Tvoje obľúbené položky
»
Nové albumy interpreta
Nové albumy interpreta
CSL Nedvedi Honza A Frantisek Frantisek/slidepack
CSL Frantisek/slidep
ack
CD Brontosauri Hlidej lasku,.. /zlate hity
CD Hlidej lasku,..
/zlate hity
2xCD Nedvedi Honza A Frantisek 44 slavnych 1 pisnicek
2xCD 44 slavnych 1
pisnicek
CD Nedved Honza Jakub
CD Jakub
CD Nedved Honza 20 let pisnicek h.nedveda
CD 20 let pisnicek
h.nedveda

»
Najnovšie videá
Najnovšie videá

František Nedvěd - Řemeslo

Řemeslo

Řemeslo - František Nedvěd Karaoke tip

Zavis - Remeslo ma zlate dno

V New Yorku ŘEMESLO ŽIJE!

HDJ - Nejstarší řemeslo
»
Najnavštevovanejšie piesne
Najnavštevovanejšie piesne
Na kameni kámen - akordy a text

Podvod - akordy a text

Stánky - akordy a text

TULÁCKÝ RÁNO - akordy a text

Růže z papíru - akordy a text

Valčíček - akordy a text

Igelit - akordy a text

Ptáčata - akordy a text

Skládanka - akordy a text

Rosa na kolejích - akordy a text

viac




home | interpreti | register piesní | cd & dvd shop | pripomienky/nápady | kontakt | ochrana údajov | inzercia
Copyright © Pavol Bacigál, 2000-2017. Všetky práva vyhradené.
TOPlist