Waldemar Matuška

piesne (301)

  texty (287) / preklady (0)
  akordy (127) / taby (4)
  noty (7) / slideshow (0)

články (59)
fotogaléria
diskusia
videá
diskografia
v obchode
odkazy
koncerty
sťahuj



pridaj vlastný článok

Ľubo Belák:
Mainstream socializmu: Vďaka Bratislavskej lýre nás spoznal aj Západ - BRATISLAVA – Najikonickejšia súťaž populárnej hudby v Československu oslavuje 50.... - atlas.sk


Waldemar Matuška:
Nezkrotný živel Waldemar Matuška bavil lidi nejen zpěvem - Zpěvák a herec Waldemar Matuška slavil 1.července v pražské Lucerně sedmdesátiny.... - ceskenoviny.cz


50 Cent:
Nové desky pro 19. týden 2014 - Vydáno: 04.05.2014 14:17 v sekci Nové desky - Tomáš Parkan a Petra Hubáčková ... - musicserver.cz


Waldemar Matuška:
Waldemar Matuška: Jeviště měl jako doping - Rebel s duší kovboje, havraními kučerami, vousy a uhrančivýma očima, tak si chariz... - televize.cz


Waldemar Matuška:
Tajomstvo Matušku: Mal cigánsku krv, kto bol jeho otec? - cas.sk


Waldemar Matuška:
Olga Matušková: Skromnějšího člověka, než byl Walda, jsem nepoznala - denik.cz


Waldemar Matuška:
Zpěvák Waldemar Matuška má v Jaroměři-Josefově muzeum - ceskenoviny.cz


Waldemar Matuška:
Muzikanti a přátelé vzpomínali na Waldemara Matušku - ceskenoviny.cz


Waldemar Matuška:
Vdova po Waldemaru Matuškovi ukázala syna: Je kopií svého otce! - super.cz


Waldemar Matuška:
Waldemar Matuška by oslavil osmdesát, připomene jej koncert - denik.cz


 

Waldemar Matuška

Fanúšikov: 14



A B C Č D E F G H CH I J K L Ľ M N O P Q R S Š T U V W X Y Z Ž



ako:
Waldemar Matuška - Ďáblovo stádo (Starý honec krav)
Waldemar Matuška - Ďáblovo stádo (Starý honec krav)

tlač

edituj
V originále: (Ghost) Riders in the Sky
Pesničku videlo 5366 návštevníkov.

Kvalita tabov : bez hodnotenia
Hodnotilo ľudí: 0 ohodnoť aj ty
Prispievateľ:

petr554
Ďáblovo stádo
Matuška Waldemar


Acoustic steel gtr (doprovod)

tempo 120BPM
takt 4/4 (2/4)



H Q E E E. S E E E. S E E
E||----------------------|--------------------------|
B||----------------------|--------------------------|
G||----------------------|--------------------------|
D||----------------------|--------------------------|
A||----------------------|--0---0-0--2--3---3-3--0--|
E||-------------------0--|--------------------------|


E. S E E H H. E E
-----------------------|---------------------|
-----------------------|---------------------|
-----------------------|---------------------|
-----------------------|---------------------|
-----------------------|---------------------|
--3---3-3--0--3--------|--L---------------0--|


E. S E E E. S E E E. S E E H
--------------------------|-----------------------|
--------------------------|-----------------------|
--------------------------|-----------------------|
-----------------------0--|--2---2-2-----2--------|
--0---0-0--2--3---3-3-----|-----------3-----------|
--------------------------|-----------------------|


H. E E E E E. S E E E. S
---------------------|--------------------------|
---------------------|--------------------------|
---------------------|-----2--2---2-2-----------|
--L---------------2--|--2--------------2--2---2-|
---------------------|--------------------------|
---------------------|--------------------------|


E E E E Q. E E. S E E E. S Q
------------------------|-------------------------|
------------------------|-------------------------|
------------------------|-------------------------|
--2--2--0---------------|-------------------------|
-----------3--0---------|--------------3---3-3----|
---------------------0--|--1---1-1--1-------------|


H. E S S E E E E H
-----------------------|-----------------------|
-----------------------|-----------------------|
-----------------------|-----------------------|
-----------------------|-----------------------|
--L---------------0h-3-|--L--0--0-----0--------|
-----------------------|-----------3-----------|


H E S S E S S E S S E S S E S S E S S
-------------------------|------------------------------|
-------------------------|------------------------------|
-------------------------|------------------------------|
--------------2-2----2-2-|-----2-2----2-2----2-2----2-2-|
--L--------0------3------|--0------3------0------3------|
-------------------------|------------------------------|


E S S E S S E S S E S S E S S E S S
----------------|------------------------------|
----------------|------------------------------|
----------------|------------------------------|
-----2-2----2-2-|-----2-2----2-2----2-2----2-2-|
--0------3------|--0------3------0------3------|
----------------|------------------------------|


E S S E S S E S S E S S E S S E S S E S S E S S
------------------------------|------------------------------|
------------------------------|------------------------------|
------------------------------|------------------------------|
-----2-2----2-2----2-2----2-2-|-----2-2----2-2----2-2----2-2-|
--0------3------0------3------|--0------3------0------3------|
------------------------------|------------------------------|


E S S E S S E S S E S S E S S E S S E S S E S S
------------------------------|------------------------------|
------------------------------|------------------------------|
------------------------------|------------------------------|
-----2-2----2-2----2-2----2-2-|-----2-2----2-2----2-2----2-2-|
--0------3------0------3------|--0------3------0------3------|
------------------------------|------------------------------|


E S S E S S E S S E S S E S S E S S E S S E S S
------------------------------|------------------------------|
------------------------------|------------------------------|
------------------------------|------------------------------|
-----2-2----2-2----2-2----2-2-|-----2-2----2-2----2-2----2-2-|
--0------3------0------3------|--0------3------0------3------|
------------------------------|------------------------------|


E S S E S S E S S E S S E S S E S S E S S E S S
------------------------------|------------------------------|
------------------------------|------------------------------|
------------------------------|------------------------------|
-----2-2----2-2----2-2----2-2-|-----2-2----2-2----2-2----2-2-|
--0------3------0------3------|--0------3------0------3------|
------------------------------|------------------------------|


E S S E S S E S S E S S E S S E S S E S S E S S
------------------------------|------------------------------|
------------------------------|------------------------------|
------------------------------|------------------------------|
-----2-2----2-2----2-2----2-2-|-----2-2----2-2----2-2----2-2-|
--0------3------0------3------|--0------3------0------3------|
------------------------------|------------------------------|


^
|----3----|
E S S E S S E S S E S S Q Q Q H
------------------------------|-----------------3--------|
------------------------------|--5----5----5----5--------|
------------------------------|--5----5----5----5--------|
-----2-2----2-2----2-2----2-2-|--7----7----7-------------|
--0------3------0------3------|--------------------------|
------------------------------|--------------------------|


^
|----3----|
H. Q Q Q Q H H. E E
--L-----------------|--5----5----5-------------|---------------------|
--L-----------------|--5----5----5----5--------|--L------------------|
--L-----------------|--5----5----5----5--------|--L------------------|
--------------------|-----------------7--------|--L------------------|
--------------------|--------------------------|---------------------|
--------------------|--------------------------|------------------0--|


H Q Q H E E Q W
---------------------|----------------------|-------------------|
---------------------|----------------------|-------------------|
---------------------|----------------------|-------------------|
---------------------|----------------------|-------------------|
---------------------|--3--------L-----3----|--0----------------|
--1--------1----1----|----------------------|-------------------|


^
|----3----|
H. Q Q Q Q H H. E E
--------------------|--------------------------|---------------------|
--------------------|--5----5----5-------------|---------------------|
--------------------|--5----5----5----5--------|--L------------------|
--------------------|--5----5----5----5--------|--L------------------|
--L-----------------|-----------------7--------|--L------------------|
--------------------|--------------------------|------------------0--|


^
|----3----|
Q Q Q H H. Q W
-----------------3--------|--L-----------------|-------------------|
--5----5----5----5--------|--L-----------------|-------------------|
--5----5----5----5--------|--L-----------------|-------------------|
--7----7----7-------------|--------------------|-------------------|
--------------------------|--------------------|--0----------------|
--------------------------|--------------------|-------------------|


H. Q W
--------------------|-------------------|
--------------------|-------------------|
--------------------|-------------------|
--------------------|-------------------|
--L-----------------|-------------------|
--------------------|-------------------|


E S S E S S E S S E S S E S S E S S E S S E S S
------------------------------|------------------------------|
------------------------------|------------------------------|
------------------------------|------------------------------|
-----2-2----2-2----2-2----2-2-|-----2-2----2-2----2-2----2-2-|
--0------3------0------3------|--0------3------0------3------|
------------------------------|------------------------------|


E S S E S S E S S E S S E S S E S S
----------------|------------------------------|
----------------|------------------------------|
----------------|------------------------------|
-----2-2----2-2-|-----2-2----2-2----2-2----2-2-|
--0------3------|--0------3------0------3------|
----------------|------------------------------|


E S S E S S E S S E S S E S S E S S E S S E S S
------------------------------|------------------------------|
------------------------------|------------------------------|
------------------------------|------------------------------|
-----2-2----2-2----2-2----2-2-|-----2-2----2-2----2-2----2-2-|
--0------3------0------3------|--0------3------0------3------|
------------------------------|------------------------------|


E S S E S S E S S E S S E S S E S S E S S E S S
------------------------------|------------------------------|
------------------------------|------------------------------|
------------------------------|------------------------------|
-----2-2----2-2----2-2----2-2-|-----2-2----2-2----2-2----2-2-|
--0------3------0------3------|--0------3------0------3------|
------------------------------|------------------------------|


E S S E S S E S S E S S E S S E S S E S S E S S
------------------------------|------------------------------|
------------------------------|------------------------------|
------------------------------|------------------------------|
-----2-2----2-2----2-2----2-2-|-----2-2----2-2----2-2----2-2-|
--0------3------0------3------|--0------3------0------3------|
------------------------------|------------------------------|


E S S E S S E S S E S S E S S E S S E S S E S S
------------------------------|------------------------------|
------------------------------|------------------------------|
------------------------------|------------------------------|
-----2-2----2-2----2-2----2-2-|-----2-2----2-2----2-2----2-2-|
--0------3------0------3------|--0------3------0------3------|
------------------------------|------------------------------|


E S S E S S E S S E S S E S S E S S E S S E S S
------------------------------|------------------------------|
------------------------------|------------------------------|
------------------------------|------------------------------|
-----2-2----2-2----2-2----2-2-|-----2-2----2-2----2-2----2-2-|
--0------3------0------3------|--0------3------0------3------|
------------------------------|------------------------------|


^
|----3----|
Q Q Q H H. Q
-----------------3--------|--L-----------------|
--5----5----5----5--------|--L-----------------|
--5----5----5----5--------|--L-----------------|
--7----7----7-------------|--------------------|
--------------------------|--------------------|
--------------------------|--------------------|


^
|----3----|
Q Q Q H H. E E
--5----5----5-------------|---------------------|
--5----5----5----5--------|--L------------------|
--5----5----5----5--------|--L------------------|
-----------------7--------|--L------------------|
--------------------------|---------------------|
--------------------------|------------------0--|


H Q Q H E E Q W
---------------------|----------------------|-------------------|
---------------------|----------------------|-------------------|
---------------------|----------------------|-------------------|
---------------------|----------------------|-------------------|
---------------------|--3--------L-----3----|--0----------------|
--1--------1----1----|----------------------|-------------------|


^
|----3----|
H. Q Q Q Q H H. Q
--------------------|-----------------3--------|--L-----------------|
--------------------|--5----5----5----5--------|--L-----------------|
--------------------|--5----5----5----5--------|--L-----------------|
--------------------|--7----7----7-------------|--------------------|
--L-----------------|--------------------------|--------------------|
--------------------|--------------------------|--------------------|


^
|----3----|
Q Q Q H H. E E
--5----5----5-------------|---------------------|
--5----5----5----5--------|--L------------------|
--5----5----5----5--------|--L------------------|
-----------------7--------|--L------------------|
--------------------------|---------------------|
--------------------------|------------------0--|


H Q Q H E E Q W
---------------------|----------------------|-------------------|
---------------------|----------------------|-------------------|
---------------------|----------------------|-------------------|
---------------------|----------------------|-------------------|
---------------------|--3--------L-----3----|--0----------------|
--1--------1----1----|----------------------|-------------------|


H. Q E S S E S S E S S E S S
--------------------|------------------------------|
--------------------|------------------------------|
--------------------|------------------------------|
--------------------|-----2-2----2-2----2-2----2-2-|
--L-----------------|--0------3------0------3------|
--------------------|------------------------------|


E S S E S S E S S E S S E S S E S S E S S E S S
------------------------------|------------------------------|
------------------------------|------------------------------|
------------------------------|------------------------------|
-----3-3----3-3----3-3----3-3-|-----4-4-0--4-4----4-4-0--4-4-|
--1------4------1------4------|--2-------------2-------------|
------------------------------|------------------------------|


E S S E S S E S S E E E S S E S S E S S E S S
-----------------------------|------------------------------|
-----------------------------|------------------------------|
-----0-0----0-0----0-0-------|------------------------------|
---------1-------------1-----|-----2-2----2-2----2-2----2-2-|
--3-------------3------------|--0------3------0------3------|
--------------------------3--|------------------------------|


E S S E S S E S S E S S E S S E S S E S S E S S
------------------------------|------------------------------|
------------------------------|------------------------------|
------------------------------|------------------------------|
-----2-2----2-2----2-2----2-2-|-----2-2----2-2----2-2----2-2-|
--0------3------0------3------|--0------3------0------3------|
------------------------------|------------------------------|


E S S E S S E S S E S S E S S E S S E S S E S S
------------------------------|------------------------------|
------------------------------|------------------------------|
------------------------------|------------------------------|
-----2-2----2-2----2-2----2-2-|-----2-2----2-2----2-2----2-2-|
--0------3------0------3------|--0------3------0------3------|
------------------------------|------------------------------|


E S S E S S E S S E S S E S S E S S E S S E S S
------------------------------|------------------------------|
------------------------------|------------------------------|
------------------------------|------------------------------|
-----2-2----2-2----2-2----2-2-|-----2-2----2-2----2-2----2-2-|
--0------3------0------3------|--0------3------0------3------|
------------------------------|------------------------------|


E S S E S S E S S E S S E S S E S S E S S E S S
------------------------------|------------------------------|
------------------------------|------------------------------|
------------------------------|------------------------------|
-----2-2----2-2----2-2----2-2-|-----2-2----2-2----2-2----2-2-|
--0------3------0------3------|--0------3------0------3------|
------------------------------|------------------------------|


E S S E S S E S S E S S E S S E S S E S S E S S
------------------------------|------------------------------|
------------------------------|------------------------------|
------------------------------|------------------------------|
-----2-2----2-2----2-2----2-2-|-----2-2----2-2----2-2----2-2-|
--0------3------0------3------|--0------3------0------3------|
------------------------------|------------------------------|


H E S S E S S E S S E S S E S S E S S
-------------------------|------------------------------|
-------------------------|------------------------------|
-------------------------|------------------------------|
--------------4-4-0--4-4-|-----4-4-0--4-4----3-3----3-3-|
-----------2-------------|--2-------------1------4------|
-------------------------|------------------------------|


E S S E S S E S S E S S E S S E E
----------------|-----------------------------|
----------------|-----------------------------|
----------------|-----------------------------|
-----3-3----3-3-|-----2-2----2-2----2-2-------|
--1------4------|--0------3------0------3-----|
----------------|-----------------------------|


^
|----3----|
Q Q Q H H. Q
-----------------3--------|--L-----------------|
--5----5----5----5--------|--L-----------------|
--5----5----5----5--------|--L-----------------|
--7----7----7-------------|--------------------|
--------------------------|--------------------|
--------------------------|--------------------|


^
|----3----|
Q Q Q H H. E E
--5----5----5-------------|---------------------|
--5----5----5-------------|---------------------|
--5----5----5----5--------|--L------------------|
-----------------5--------|--L------------------|
-----------------7--------|--L------------------|
--------------------------|------------------0--|


H Q Q H E E Q W
---------------------|----------------------|-------------------|
---------------------|----------------------|-------------------|
---------------------|----------------------|-------------------|
---------------------|----------------------|-------------------|
---------------------|--3--------L-----3----|--0----------------|
--1--------1----1----|----------------------|-------------------|


^
|----3----|
H. Q Q Q Q H H. Q
--------------------|-----------------3--------|--L-----------------|
--------------------|--5----5----5----5--------|--L-----------------|
--------------------|--5----5----5----5--------|--L-----------------|
--------------------|--7----7----7-------------|--------------------|
--L-----------------|--------------------------|--------------------|
--------------------|--------------------------|--------------------|


^
|----3----|
Q Q Q H H. E E
--5----5----5-------------|---------------------|
--5----5----5----5--------|--L------------------|
--5----5----5----5--------|--L------------------|
-----------------7--------|--L------------------|
--------------------------|---------------------|
--------------------------|------------------0--|


H Q Q H E E Q W
---------------------|----------------------|-------------------|
---------------------|----------------------|-------------------|
---------------------|----------------------|-------------------|
---------------------|----------------------|-------------------|
---------------------|--3--------L-----3----|--0----------------|
--1--------1----1----|----------------------|-------------------|


H. Q H. E E H Q Q
--------------------|---------------------|---------------------|
--------------------|---------------------|---------------------|
--------------------|---------------------|---------------------|
--------------------|---------------------|---------------------|
--L-----------------|---------------------|---------------------|
--------------------|------------------0--|--1--------1----1----|


H E E Q W H. Q
----------------------|-------------------|--------------------|
----------------------|-------------------|--------------------|
----------------------|-------------------|--------------------|
----------------------|-------------------|--------------------|
--3--------L-----3----|--0----------------|--L-----------------|
----------------------|-------------------|--------------------|


E S S E S S E S S E S S E S S E S S E S S E S S
------------------------------|------------------------------|
------------------------------|------------------------------|
------------------------------|------------------------------|
-----2-2----2-2----2-2----2-2-|-----2-2----2-2----2-2----2-2-|
--0------3------0------3------|--0------3------0------3------|
------------------------------|------------------------------|


E S S E S S E S S E S S E S S E S S E S S E S S
------------------------------|------------------------------||
------------------------------|------------------------------||
------------------------------|------------------------------||
-----2-2----2-2----2-2----2-2-|-----2-2----2-2----2-2----2-2-||
--0------3------0------3------|--0------3------0------3------||
------------------------------|------------------------------||


akustická + solova v pdf:
https://www.dropbox.com/s/dbeas05w8ffioxw/
Matu%C5%A1ka%2CWaldemar%20%C4%8E%C3%A1blovo%20st%C3%A1do.pdf

Duration Legend
---------------
W - whole
H - half
Q - quarter
E - 8th
S - 16th
T - 32nd
X - 64th
. - note dotted
|-n-| - n-tuplets


Tablature Legend
----------------
L - tied note
x - dead note
g - grace note
(n) - ghost note
> - accentuded note
NH - natural harmonic
AH - artificial harmonic
TH - tapped harmonic
SH - semi harmonic
PH - pitch harmonic
h - hammer on
p - pull off
b - bend
br - bendRelease
pb - preBend
pbr - preBendRelease
brb - bendReleaseBend
\n/ - tremolo bar dip
\n - tremolo bar dive
-/n - tremolo bar Release up
/n\ - tremolo bar inverted dip
/n - tremolo bar return
-\n - tremolo bar Release down
S - shift slide
s - legato slide
/ - slide into from below or out of upwards
\ - slide into from above or out of downwards
~ - vibrato
W - wide vibrato
tr - trill
TP - tremolo picking
T - tapping
S - slap
P - pop
< - fade in
^ - brush up
v - brush down

 
»
Tvoje obľúbené položky
Tvoje obľúbené položky
»
Nové albumy interpreta
Nové albumy interpreta
6
2xCD Vlach Karel Legenda
2xCD Legenda
2xCD Matuska Waldemar To vsechno vodnes' cas
2xCD To vsechno
vodnes' cas
CD Matuskovi Waldemar A Olga Niagara
CD Niagara
2xCD Hybs Vaclav To nejlepsi z padesati let
2xCD To nejlepsi z
padesati let
3xCD Matuska Waldemar Sbohem lasko [zlata kolekce]
3xCD Sbohem lasko
[zlata kolekce]
DVD Semafor Unikaty
DVD Unikaty

»
Najnovšie videá
Najnovšie videá

Waldedmar Matuka - blovo stdo

Eldordo - Waldemar Matuka vs. Walda Ga

Wabi a blovo stdo iv v Koncertu Stu

Wabi Dank & blovo stdo - Dlouh ern

Rudolf Corts-blovo stdo.wmv

Wabi Dank a blovo stdo - Mrtvej vlak
»
Najnavštevovanejšie piesne
Najnavštevovanejšie piesne
Slavíci z Madridu - akordy

Slavíci z Madridu - akordy a text

Tisíc mil - akordy a text

Růže z Texasu - akordy a text

Sbohem lásko - akordy a text

Eldorádo - akordy a text

Sbohem, lásko - akordy a text

Tereza - akordy a text

Když jdou na mužskýho léta - akordy a text

Jó třešně zrály - akordy a text

Tak abyste to věděla (z filmu Kdyby tisíc klarinetů) - akordy a text

Zuzana - akordy a text

Eldorádo - noty

Tisíc mil - taby

Vítr to ví - akordy a text

Tisíc mil - taby

Co děláš, to udělej rád - akordy a text

Ďáblovo stádo (Starý honec krav) - taby

Ach, ta láska nebeská - akordy a text

To se nikdo nedoví - akordy a text

viac




home | interpreti | register piesní | cd & dvd shop | pripomienky/nápady | kontakt | ochrana údajov | inzercia

TOPlist