Pavel Lohonka Žalman

piesne (187)

  texty (184) / preklady (0)
  akordy (183) / taby (3)
  noty (0) / slideshow (0)

články (26)
fotogaléria
diskusia
videá
diskografia
v obchode
odkazy
koncerty
sťahuj



pridaj vlastný článok

Pavel Lohonka Žalman:
Žalmanův kabriolet se řítí vpřed s plnou nádrží - Jižní Čechy - Nové CD Cestující muž je pestré a přináší i magický vícehlas. Písně nemají ... - denik.cz


Pavel Lohonka Žalman:
Triumf na cestě časem - Vyšlo jinde "Poprvé jsem byl v Lucerně v roce 1964, na soutěži trampských písní,“ sv... - folktime.cz


Pavel Lohonka Žalman:
OBRAZEM: Žalman slavil v Metropolu, pokřtil desku Cestující muž - České Budějovice - Pavel Žalman Lohonka měl 23. března velký koncert ke svým 70. narozeni... - denik.cz


Pavel Lohonka Žalman:
„Medaili dá Žalmanovi příští prezident.“ Folková legenda slavila v Lucerně - Praha /FOTOGALERIE/ - Písničkář Pavel Lohonka Žalman si 20. března, v den 70. narozenin, ... - denik.cz


Pavel Lohonka Žalman:
Pavel Žalman Lohonka - Dokud umí lidé hrát a zpívat, nic je nedokáže umlčet - Vydáno: 17.03.2016 11:00 v sekci Rozhovory - Milan Menčík Pavel Žalman Lohonka brázdí fo... - musicserver.cz


Pavel Lohonka Žalman:
Žalman přepřáhl a jeho kočár frčí dál, vícehlas se ale příliš nedaří - denik.cz


Pavel Lohonka Žalman:
Žalman obměnil po 14 letech kapelu - denik.cz


Pavel Lohonka Žalman:
Nový Žalman zní magicky, ačkoli nepřekvapí - denik.cz


Pavel Lohonka Žalman:
Noční speciál - Žalman & spol. - scena.cz


Pavel Lohonka Žalman:
Žalman: Opět v TV - Žalman: Opět v TV Přibližně po roce přiletělo pozvání do televize, tentokrát do pořadu...


 

Pavel Lohonka Žalman

Fanúšikov: 11



A B C Č D E F G H CH I J K L Ľ M N O P Q R S Š T U V W X Y Z Ž



ako:
Pavel Lohonka Žalman - Divoký horský tymián
Pavel Lohonka Žalman - Divoký horský tymián

tlač

edituj
V originále: Wild Mountain Thyme
Pesničku videlo 8381 návštevníkov.

Kvalita tabov : bez hodnotenia
Hodnotilo ľudí: 0 ohodnoť aj ty
Prispievateľ:

petr554
  *** Autor textu: Žalman, Pavel Lohonka *** Autor hudby: Tradicional
                        Divoký horský tymián                          

Žalman Pavel Lohonka


Guitar (steel)



Předehra
^ ^
H. E E H E E Q H. E E
E||---------------------|----------------------|------------------3--|
B||---------------1-----|--------------1--L----|--1------------5-----|
G||------------------2--|--0--------2----------|--0------------------|
D||---------------------|--2-------------------|---------------------|
A||---------------------|--3-------------------|--3------------------|
E||---------------------|----------------------|---------------------|


^ ^ ^
H Q. E E E H E E H Q. E
--5--------5------3--|--0--3--L-----------3--|--5--------3------0--|
--6--------6------0--|--1--------------5-----|--6--------3---------|
--5--------5---------|-----------------------|--5--------4---------|
-----------7---------|-----------------------|---------------------|
---------------------|--3--------------------|---------------------|
---------------------|-----------------------|---------------------|


^
S S E H E E Q. E Q. E
----------------------0--|--1------0------------|
--3h-5-3--1--------3-----|--3---------3------1--|
-------------------------|--2-------------------|
-------------------------|--0-------------------|
--0--L-L--L--------------|----------------------|
-------------------------|----------------------|


^ ^
E E H E E H E E Q W
-----------------------|----------------------|-------------------|
-----1--L--------1-----|--------------1--L----|--1----------------|
--2-----------------2--|--0--------2----------|--0----------------|
--3--L--L--------------|--2--------3----------|-------------------|
-----------------------|--3-------------------|--3----------------|
-----------------------|----------------------|-------------------|


E E E E Q Q E E E E E E E E
--------------0---------|--------------3-----------|
-------------------1----|--------1--------1--------|
--------0---------------|-----2-----2--------2-----|
-----2-----2------------|--3--------------------3--|
--3---------------------|--------------------------|
------------------------|--------------------------|


Sloka
E E E E Q Q E E E E E E E E
--------------0---------|-----------------3-----------|
-------------------1----|-----------1--------1--------|
--------0---------------|--------2-----2--------2-----|
-----2-----2------------|--3-----------------------3--|
--3---------------------|-----------------------------|
------------------------|-----------------------------|


E E E E E E E E E E E E E E E E
--------------------------|--------------------------|
-----------1--------1-----|--------1-----------1-----|
--------0--------2--------|-----0-----0-----0--------|
-----2--------3--------3--|--2--------------------0--|
--3-----------------------|--------------3-----------|
--------------------------|--------------------------|


E E E E E E E E E E E E Q E E
--------------1-----------|--------------0-----------|
--------1--------1--------|-------------------1p--0--|
-----2-----2--------2-----|--------0-----------------|
--3--------------------0--|-----2-----2--------------|
--------------------------|--3-----------------------|
--------------------------|--------------------------|


E E E E E E E E E E E E E E E E
--------1-----------3-----|--------------0-----------|
--------1-----------3-----|-----------1-----1-----1--|
-----2-----------4--------|--------2-----------2-----|
--3--------0--5-----------|-----2--------------------|
--------------------------|--0-----------------------|
-----------------------3--|--------------------------|


E E E E Q Q E E E E Q E E
--------------1---------|-------------------------|
--------3----------3----|--------------1----------|
-----2-----2------------|-----------2-------2-----|
--0---------------------|--------3-------------0--|
------------------------|-----3-------------------|
------------------------|--1----------------------|


E E E E E E E E E E E E Q E E
-----------------------1--|--------------0----------|
-----------1--------1-----|-------------------1-----|
--------0--------2--------|--------0-------------0--|
-----2--------3-----------|-----2-----2-------------|
--3-----------------------|--3----------------------|
--------------------------|-------------------------|


E E E E E E E E E E E E Q Q
--------------3-----------|--------------0---------|
--------1--------1--------|-------------------1----|
-----2-----2--------2-----|--------0---------------|
--3--------------------0--|-----2-----2------------|
--------------------------|--3---------------------|
--------------------------|------------------------|


E E E E E E E E E E E E E E E E
--------------3-----------|--------------------------|
--------1--------1--------|-----------1--------1-----|
-----2-----2--------2-----|--------0--------2--------|
--3--------------------0--|-----2--------3--------3--|
--------------------------|--3-----------------------|
--------------------------|--------------------------|


E E E E E E E E E E E E E E E E
--------------------------|--------------1-----------|
--------1-----------1-----|--------1--------1-----1--|
-----0-----0-----0--------|-----2-----2--------2-----|
--2--------------------2--|--3-----------------------|
--------------3-----------|--------------------------|
--------------------------|--------------------------|


E E E E E E E E E E E E E E E E
--------------0-----------|--------1-----------3-----|
-----------------1-----1--|--------1-----------3-----|
--------0-----------0-----|-----2-----------4--------|
-----2-----2--------------|--3--------0--5-----------|
--3-----------------------|--------------------------|
--------------------------|-----------------------3--|


E E E E E E E E E E E E E E E E
--------------0-----------|--------------1-----------|
-----------1-----1-----1--|--------3--------3-----3--|
--------2-----------2-----|-----2-----2--------2-----|
-----2--------------------|--0-----------------------|
--0-----------------------|--------------------------|
--------------------------|--------------------------|


E E E E Q E E E E E E E E E E
-------------------------|-----------------------1--|
--------------1----------|-----------1--------1-----|
-----------2-------2-----|--------0--------2--------|
--------3-------------0--|-----2--------3-----------|
-----3-------------------|--3-----------------------|
--1----------------------|--------------------------|


E E E E Q E E E E E E E E E E
--------------0-----------|--------------3-----------|
-------------------1p--0--|--------1--------1--------|
--------0-----------------|-----2-----2--------2-----|
-----2-----2--------------|--3--------------------3--|
--3-----------------------|--------------------------|
--------------------------|--------------------------|


E E E E Q Q E E E E E E E E
--------------0---------|--------------3-----------|
-------------------1----|--------1--------1--------|
--------0---------------|-----2-----2--------2-----|
-----2-----2------------|--3--------------------0--|
--3---------------------|--------------------------|
------------------------|--------------------------|


E E E E E E E E E E E E E E E E
--------------------------|--------------------------|
-----------1--------1-----|--------1-----------1-----|
--------0--------2--------|-----0-----0-----0--------|
-----2--------3--------3--|--2--------------------2--|
--3-----------------------|--------------3-----------|
--------------------------|--------------------------|


E E E E E E E E E E E E E E E E
--------------1-----------|--------------0-----------|
--------1--------1-----1--|-----------------1-----1--|
-----2-----2--------2-----|--------0-----------0-----|
--3-----------------------|-----2-----2--------------|
--------------------------|--3-----------------------|
--------------------------|--------------------------|


E E E E E E E E E E E E E E E E
--------1-----------3-----|--------------0-----------|
--------1-----------3-----|-----------1-----1-----1--|
-----2-----------4--------|--------2-----------2-----|
--3--------0--5-----------|-----2--------------------|
--------------------------|--0-----------------------|
-----------------------3--|--------------------------|


E E E E E E E E E E E E Q E E
--------------1-----------|-------------------------|
--------3--------3-----3--|--------------1----------|
-----2-----2--------2-----|-----------2-------2-----|
--0-----------------------|--------3-------------0--|
--------------------------|-----3-------------------|
--------------------------|--1----------------------|


E E E E E E E E E E E E Q E E
-----------------------1--|--------------0-----------|
-----------1--------1-----|-------------------1p--0--|
--------0--------2--------|--------0-----------------|
-----2--------3-----------|-----2-----2--------------|
--3-----------------------|--3-----------------------|
--------------------------|--------------------------|


E E E E E E E E E E E E Q Q
--------------3-----------|--------------0---------|
--------1--------1--------|-------------------1----|
-----2-----2--------2-----|--------0---------------|
--3--------------------3--|-----2-----2------------|
--------------------------|--3---------------------|
--------------------------|------------------------|


^
E E E E E E E E W
--------------3-----------|--0----------------|-------------------|
--------1--------1--------|--1----------------|-------------------|
-----2-----2--------2-----|--0----------------|-------------------|
--3--------------------0--|--2----------------|-------------------|
--------------------------|--3----------------|-------------------|
--------------------------|-------------------|-------------------|


tab pro kytaru + flétnu + čelo v pdf:
https://www.dropbox.com/s/nnct9vkw9xn3he1/
%C5%BDalman%20-%20Divok%C3%BD%20horsk%C3%BD%20tymi%C3%A1n.pdf


Duration Legend
---------------
W - whole
H - half
Q - quarter
E - 8th
S - 16th
T - 32nd
X - 64th
. - note dotted
|-n-| - n-tuplets


Tablature Legend
----------------
L - tied note
x - dead note
g - grace note
(n) - ghost note
> - accentuded note
NH - natural harmonic
AH - artificial harmonic
TH - tapped harmonic
SH - semi harmonic
PH - pitch harmonic
h - hammer on
p - pull off
b - bend
br - bendRelease
pb - preBend
pbr - preBendRelease
brb - bendReleaseBend
\n/ - tremolo bar dip
\n - tremolo bar dive
-/n - tremolo bar Release up
/n\ - tremolo bar inverted dip
/n - tremolo bar return
-\n - tremolo bar Release down
S - shift slide
s - legato slide
/ - slide into from below or out of upwards
\ - slide into from above or out of downwards
~ - vibrato
W - wide vibrato
tr - trill
TP - tremolo picking
T - tapping
S - slap
P - pop
< - fade in
^ - brush up
v - brush down

 
»
Tvoje obľúbené položky
Tvoje obľúbené položky
»
Nové albumy interpreta
Nové albumy interpreta
CD Zalman Pavel Pisne sebrane.../slidepack
CD Pisne
sebrane.../slide
pack
CD Zalman A Spol. Laska a smrt/slidepack
CD Laska a
smrt/slidepack
CD Zalman A Spol. Budejky
CD Budejky
3xCD Zalman Pavel Pribehy
3xCD Pribehy
2xCD Zalman Pavel Mezi kameny
2xCD Mezi kameny
CD Zalman A Spol. Napis na stitu domu
CD Napis na stitu
domu

»
Najnovšie videá
Najnovšie videá

Divoký horský tymián.... /smlk /

Divokej horskej tymián

Pavel Lohonka Žalman - Divokej horskej t

PÁDY - Divokej horskej tymián (Pavel Loh


Pavel Lohonka Žalman & spol.mp4
»
Najnavštevovanejšie piesne
Najnavštevovanejšie piesne
Divokej horskej tymián - akordy a text

Divoký horský tymián - taby

Jdem zpátky do lesů - akordy a text

Kdyby tady byla taková panenka - akordy a text

Rána v trávě - akordy a text

Ho ho Watanay - akordy a text

Jantarová země - akordy a text

Já písnička - akordy a text

Všech vandráků múza - akordy a text

Až mně bude - akordy a text

viac




home | interpreti | register piesní | cd & dvd shop | pripomienky/nápady | kontakt | ochrana údajov | inzercia
Copyright © Pavol Bacigál, 2000-2017. Všetky práva vyhradené.
TOPlist