František Nedvěd

piesne (104)

  texty (95) / preklady (0)
  akordy (47) / taby (8)
  noty (0) / slideshow (0)

články (40)
fotogaléria
diskusia
videá
diskografia
v obchode
odkazy
koncerty
sťahuj



pridaj vlastný článok

Thom Artway:
Festival Slunovrat objevil nové písnièkáøe - 23.03. | Autor: PR | sekce: novinky Tamdoletma - Slunovrat Tamdoletma - Slunovrat Dn... - muzikus.cz


Honza Nedvěd:
Před 20 lety přišlo na Nedvědy na Strahově bezmála 70 000 lidí! Dnes už
spolu slavné bratry neuvidíte…
- Bratři Jan a František Nedvědovi už spolu nezpívají. Bratři Jan a František Nedv... - blesk.cz


Cigánski Diabli:
Dnes sa začína šestnásty ročník Lodenice - Dnes sa začína šestnásty ročník Lodenice Festival / do nedele, Piešťany, Sĺňav... - sme.sk


Ahmed Má Hlad:
Festivalový víkend: bylo to krásné a nebylo toho dost - Prago Union | na serveru Lidovky.cz | aktuální zprávy 6. září 2013 7:00 | Lidov... - lidovky.cz


František Nedvěd:
František Nedvěd poprvé na Stodole Michala Tučného - Koncert bratří Nedvědů, Beroun, 17.6.2012 (Foto: Jiří Konc / CountryWorld.cz... - countryworld.cz


Jaksi Taksi:
14. 5. 2011 Skiareál Horní Domky, Rokytnice nad Jizerou - 14. 5. 2011 Skiareál Horní Domky, Rokytnice nad Jizerou Již čtvrtý ročník tohot...


Arena:
Lodenica: Program hlavnej scény známy! - Bleskovky - Kultura


Čechomor:
Prvé mená v programe festivalu Lodenica 2009 - folk.sk


František Nedvěd:
13. komnata Františka Nedvěda - eurotelevizia.sk


František Nedvěd:
František Nedvěd a Peoples spestria Bratislava-inline - František Nedvěd a Peoples spestria Bratislava-inline BRAT ISLAVA 28. augusta (SITA) ...


 

František Nedvěd

Fanúšikov: 23



A B C Č D E F G H CH I J K L Ľ M N O P Q R S Š T U V W X Y Z Ž



ako:
František Nedvěd - To jsem já
František Nedvěd - To jsem já

tlač

edituj
V originále: This is me
Pesničku videlo 3210 návštevníkov.

Kvalita tabov : bez hodnotenia
Hodnotilo ľudí: 0 ohodnoť aj ty
Prispievateľ:

petr554
  *** Autor textu: Nedvěd František
To jsem já
This is me
Nedvěd František


Tempo = 91
accoustic guitar

Legend
L - tied note
x - dead note
h - hammer on/pull off
b - bend
s - slide
~ - vibrato
g - ghost note
> - accentuated note
t - trill
M - palm mute
. - staccato
P - popping (bass)
S - slapping (bass)
+ - tapping
W - wide vibrato
< - fade in
w - whammy bar
= - tremolo picking
v - brush up
^ - brush down
V - pick stroke up
n - pick stroke down


E |-----------4--------------------------2h----1-------|
B |--------2--------2-----------2----------------------|
G |--3-------------------------------------------------|
D |-----------------------4-----------4----------------|
A |----------------------------------------------------|
E |----------------------------------------------------|


----------------------------------------------------|
--------2s-4-----2-----------2--------4h----2-------|
--1-------------------------------------------------|
-----------------------1-----------1----------------|
----------------------------------------------------|
----------------------------------------------------|


-----------4--------------------------2h----1-------|
--------2--------2-----------2----------------------|
--3-------------------------------------------------|
-----------------------4-----------4----------------|
----------------------------------------------------|
----------------------------------------------------|


----------------------------------------------------|
--------2s-4-----2-----------2--------4h----2-------|
--1-------------------------------------------------|
-----------------------1-----------1----------------|
----------------------------------------------------|
----------------------------------------------------|


-----------4--------------------------2h----1-------|
--------2--------2-----------2----------------------|
--3-------------------------------------------------|
-----------------------4-----------4----------------|
----------------------------------------------------|
----------------------------------------------------|


----------------------------------------------------|
--------2s-4-----2-----------2--------4h----2-------|
--1-------------------------------------------------|
-----------------------1-----------1----------------|
----------------------------------------------------|
----------------------------------------------------|


-----------4--------------------------2h----1-------|
--------2--------2-----------2----------------------|
--3-------------------------------------------------|
-----------------------4-----------4----------------|
----------------------------------------------------|
----------------------------------------------------|


----------------------------------------------------|
--------2s-4-----2-----------2--------4h----2-------|
--1-------------------------------------------------|
-----------------------1-----------1----------------|
----------------------------------------------------|
----------------------------------------------------|


-----------4--------------------------2h----1-------|
--------2--------2-----------2----------------------|
--3-------------------------------------------------|
-----------------------4-----------4----------------|
----------------------------------------------------|
----------------------------------------------------|


----------------------------------------------------|
--------2s-4-----2-----------2--------4h----2-------|
--1-------------------------------------------------|
-----------------------1-----------1----------------|
----------------------------------------------------|
----------------------------------------------------|


----------------------------|----------------------------|
----------------------------|----------------------------|
----------------------------|----------------------------|
----------------------------|----------------------------|
----------------------------|----------------------------|
----------------------------|----------------------------|


----------------------------|----------------------------|
----------------------------|----------------------------|
----------------------------|----------------------------|
----------------------------|----------------------------|
----------------------------|----------------------------|
----------------------------|----------------------------|


----------------------------|----------------------------|
----------------------------|----------------------------|
----------------------------|----------------------------|
----------------------------|----------------------------|
----------------------------|----------------------------|
----------------------------|----------------------------|


----------------------------|----------------------------|
----------------------------|----------------------------|
----------------------------|----------------------------|
----------------------------|----------------------------|
----------------------------|----------------------------|
----------------------------|----------------------------|


----------------------------|----------------------------|
----------------------------|----------------------------|
----------------------------|----------------------------|
----------------------------|----------------------------|
----------------------------|----------------------------|
----------------------------|----------------------------|


-----------4--------------------------2h----1-------|
--------2--------2-----------2----------------------|
--3-------------------------------------------------|
-----------------------4-----------4----------------|
----------------------------------------------------|
----------------------------------------------------|


----------------------------------------------------|
--------2s-4-----2-----------2--------4h----2-------|
--1-------------------------------------------------|
-----------------------1-----------1----------------|
----------------------------------------------------|
----------------------------------------------------|


-----------4--------------------------2h----1-------|
--------2--------2-----------2----------------------|
--3-------------------------------------------------|
-----------------------4-----------4----------------|
----------------------------------------------------|
----------------------------------------------------|


----------------------------------------------------|
--------2s-4-----2-----------2--------4h----2-------|
--1-------------------------------------------------|
-----------------------1-----------1----------------|
----------------------------------------------------|
----------------------------------------------------|


-----------4--------------------------2h----1-------|
--------2--------2-----------2----------------------|
--3-------------------------------------------------|
-----------------------4-----------4----------------|
----------------------------------------------------|
----------------------------------------------------|


----------------------------------------------------|
--------2s-4-----2-----------2--------4h----2-------|
--1-------------------------------------------------|
-----------------------1-----------1----------------|
----------------------------------------------------|
----------------------------------------------------|


-----------4--------------------------2h----1-------|
--------2--------2-----------2----------------------|
--3-------------------------------------------------|
-----------------------4-----------4----------------|
----------------------------------------------------|
----------------------------------------------------|


----------------------------------------------------|
--------2s-4-----2-----------2--------4h----2-------|
--1-------------------------------------------------|
-----------------------1-----------1----------------|
----------------------------------------------------|
----------------------------------------------------|


-----------4--------------------------2h----1-------|
--------2--------2-----------2----------------------|
--3-------------------------------------------------|
-----------------------4-----------4----------------|
----------------------------------------------------|
----------------------------------------------------|


----------------------------------------------------|
--------2s-4-----2-----------2--------4h----2-------|
--1-------------------------------------------------|
-----------------------1-----------1----------------|
----------------------------------------------------|
----------------------------------------------------|


----------------------------|----------------------------|
----------------------------|----------------------------|
----------------------------|----------------------------|
----------------------------|----------------------------|
----------------------------|----------------------------|
----------------------------|----------------------------|


----------------------------|----------------------------|
----------------------------|----------------------------|
----------------------------|----------------------------|
----------------------------|----------------------------|
----------------------------|----------------------------|
----------------------------|----------------------------|


----------------------------|----------------------------|
----------------------------|----------------------------|
----------------------------|----------------------------|
----------------------------|----------------------------|
----------------------------|----------------------------|
----------------------------|----------------------------|


----------------------------|----------------------------|
----------------------------|----------------------------|
----------------------------|----------------------------|
----------------------------|----------------------------|
----------------------------|----------------------------|
----------------------------|----------------------------|


----------------------------|----------------------------|
----------------------------|----------------------------|
----------------------------|----------------------------|
----------------------------|----------------------------|
----------------------------|----------------------------|
----------------------------|----------------------------|


----------------------------|----------------------------|
----------------------------|----------------------------|
----------------------------|----------------------------|
----------------------------|----------------------------|
----------------------------|----------------------------|
----------------------------|----------------------------|


----------------------------|----------------------------|
----------------------------|----------------------------|
----------------------------|----------------------------|
----------------------------|----------------------------|
----------------------------|----------------------------|
----------------------------|----------------------------|


----------------------------|----------------------------|
----------------------------|----------------------------|
----------------------------|----------------------------|
----------------------------|----------------------------|
----------------------------|----------------------------|
----------------------------|----------------------------|


----------------------------|----------------------------|
----------------------------|----------------------------|
----------------------------|----------------------------|
----------------------------|----------------------------|
----------------------------|----------------------------|
----------------------------|----------------------------|


----------------------------|----------------------------|
----------------------------|----------------------------|
----------------------------|----------------------------|
----------------------------|----------------------------|
----------------------------|----------------------------|
----------------------------|----------------------------|


----------------------------|----------------------------|
----------------------------|----------------------------|
----------------------------|----------------------------|
----------------------------|----------------------------|
----------------------------|----------------------------|
----------------------------|----------------------------|


----------------------------|----------------------------|
----------------------------|----------------------------|
----------------------------|----------------------------|
----------------------------|----------------------------|
----------------------------|----------------------------|
----------------------------|----------------------------|


----------------------------|----------------------------|
----------------------------|----------------------------|
----------------------------|----------------------------|
----------------------------|----------------------------|
----------------------------|----------------------------|
----------------------------|----------------------------|


----------------------------|----------------------------|
----------------------------|----------------------------|
----------------------------|----------------------------|
----------------------------|----------------------------|
----------------------------|----------------------------|
----------------------------|----------------------------|


----------------------------|-------|-------|-------|-------|-------|-------|
----------------------------|-------|-------|-------|-------|-------|-------|
----------------------------|-------|-------|-------|-------|-------|-------|
----------------------------|-------|-------|-------|-------|-------|-------|
----------------------------|-------|-------|-------|-------|-------|-------|
----------------------------|-------|-------|-------|-------|-------|-------|


-------|-------|-------||
-------|-------|-------||
-------|-------|-------||
-------|-------|-------||
-------|-------|-------||
-------|-------|-------||

v pdf:
https://www.dropbox.com/s/1fo364lr0naieha/
Nedv%C4%9Bd%20Franti%C5%A1ek-To%20jsem%20j%C3%A1.pdf

 
»
Tvoje obľúbené položky
Tvoje obľúbené položky
»
Nové albumy interpreta
Nové albumy interpreta
6
2xCD Nedved Frantisek Galerie pisni
2xCD Galerie pisni
CSL Nedvedi Honza A Frantisek Frantisek/slidepack
CSL Frantisek/slidep
ack
3xCD NedvĚd FrantiŠek NevÁhej a vejdi, druhÉ podÁnÍ, tŘetÍ pokus
3xCD Neváhej a
vejdi, druhé
podání,
tŘetí pokus
6xCD Varoius 100 nej country
6xCD 100 nej country
CD Nedved Frantisek Pata
CD Pata
CD Nedved Frantisek Ctvrta sada
CD Ctvrta sada

»
Najnovšie videá
Najnovšie videá

Frantiek Nedvd 6/6 - Jablka - J na

Frantisek Nedved - jen trpelivost lasko

Lucie Bl & Frantiek Nedvd - Svtn

Jan Nedvd - Vechno nejlep

Honza Nedvd - Podvod

Frantiek Nedvd 2/6 - Nic vc - Jsem je
»
Najnavštevovanejšie piesne
Najnavštevovanejšie piesne
Devatenáct - akordy a text

Podvod - akordy a text

Cherokee Bill - akordy a text

Můj zvon - akordy a text

Valčíček - text

Jablůňka - akordy a text

Jsem jenom chlap - akordy a text

Písnička je lék - akordy a text

Svítání - akordy a text

Podvod - text

Klekání - akordy a text

Tvou vůni dávno znám - taby

Kočovní herci - taby

Řemeslo - akordy a text

Kočovní herci - akordy a text

Námořnická balada / Bar u Zlaté plachty - text

Prázdný dům - akordy a text

Kočovní herci - akordy a text

Rozchod - akordy a text

Zlatá rybka - akordy a text

viac




home | interpreti | register piesní | cd & dvd shop | pripomienky/nápady | kontakt | ochrana údajov | inzercia

TOPlist