František Nedvěd

piesne (104)

  texty (95) / preklady (0)
  akordy (47) / taby (8)
  noty (0) / slideshow (0)

články (40)
fotogaléria
diskusia
videá
diskografia
v obchode
odkazy
koncerty
sťahuj



pridaj vlastný článok

Thom Artway:
Festival Slunovrat objevil nové písnièkáøe - 23.03. | Autor: PR | sekce: novinky Tamdoletma - Slunovrat Tamdoletma - Slunovrat Dn... - muzikus.cz


František Nedvěd:
Před 20 lety přišlo na Nedvědy na Strahově bezmála 70 000 lidí! Dnes už
spolu slavné bratry neuvidíte…
- Bratři Jan a František Nedvědovi už spolu nezpívají. Bratři Jan a František Nedv... - blesk.cz


Cigánski Diabli:
Dnes sa začína šestnásty ročník Lodenice - Dnes sa začína šestnásty ročník Lodenice Festival / do nedele, Piešťany, Sĺňav... - sme.sk


Ahmed Má Hlad:
Festivalový víkend: bylo to krásné a nebylo toho dost - Prago Union | na serveru Lidovky.cz | aktuální zprávy 6. září 2013 7:00 | Lidov... - lidovky.cz


František Nedvěd:
František Nedvěd poprvé na Stodole Michala Tučného - Koncert bratří Nedvědů, Beroun, 17.6.2012 (Foto: Jiří Konc / CountryWorld.cz... - countryworld.cz


Jaksi Taksi:
14. 5. 2011 Skiareál Horní Domky, Rokytnice nad Jizerou - 14. 5. 2011 Skiareál Horní Domky, Rokytnice nad Jizerou Již čtvrtý ročník tohot...


Arena:
Lodenica: Program hlavnej scény známy! - Bleskovky - Kultura


Čechomor:
Prvé mená v programe festivalu Lodenica 2009 - folk.sk


František Nedvěd:
13. komnata Františka Nedvěda - eurotelevizia.sk


František Nedvěd:
František Nedvěd a Peoples spestria Bratislava-inline - František Nedvěd a Peoples spestria Bratislava-inline BRAT ISLAVA 28. augusta (SITA) ...


 

František Nedvěd

Fanúšikov: 23



A B C Č D E F G H CH I J K L Ľ M N O P Q R S Š T U V W X Y Z Ž



ako:
František Nedvěd - Ostrov jménem mládí
František Nedvěd - Ostrov jménem mládí

tlač

edituj
Rok vzniku: 1972
V originále: Christian Island (Gerogian Bay)
Pesničku videlo 3052 návštevníkov.

Kvalita tabov : bez hodnotenia
Hodnotilo ľudí: 0 ohodnoť aj ty
Prispievateľ:

petr554
  *** Autor textu: Nedvěd F. (cz), Gordon Lightfoot (en) *** Autor hudby: Gordon Lightfoot
Tempo = 110bpm
Acoustic (doprovod)
Takt 4/4

Legend
L - tied note
x - dead note
h - hammer on/pull off
b - bend
s - slide
~ - vibrato
g - ghost note
> - accentuated note
t - trill
M - palm mute
. - staccato
P - popping (bass)
S - slapping (bass)
+ - tapping
W - wide vibrato
< - fade in
w - whammy bar
= - tremolo picking
v - brush up
^ - brush down
V - pick stroke up
n - pick stroke down

Capo II


E |----------------------------|----------------------------|
B |--------0--------0----------|--------0--------0----------|
G |-----0--------0--------0----|-----0--------0--------0----|
D |-----------0--------0-------|-----------0--------0-------|
A |----------------------------|----------------------------|
E |--3-------------------------|--3-------------------------|


----------------------------|----------------------------||
--------0--------0----------|--------0--------0----------||
-----0--------0--------0----|-----0--------0--------0----||
-----------0--------0-------|-----------0--------0-------||
----------------------------|----------------------------||
--3-------------------------|--3-------------------------||


---------------------------|----------------------------|
-------0--------0----------|--------0--------0----------|
o---0--------0--------0----|-----0--------0--------0----|
o---------0--------0-------|-----------0--------0-------|
---------------------------|----------------------------|
-3-------------------------|--3-------------------------|


----------------------------|----------------------------|
--------1--------1----------|--------0--------0----------|
-----0--------0--------0----|-----0--------0--------0----|
-----------2--------2-------|-----------0--------0-------|
--3-------------------------|----------------------------|
----------------------------|--3-------------------------|


----------------------------|----------------------------|
--------3--------3----------|--------1--------1----------|
-----2--------2--------2----|-----0--------0--------0----|
--0--------0--------0-------|-----------2--------2-------|
----------------------------|--3-------------------------|
----------------------------|----------------------------|


----------------------------|----------------------------|
--------0--------0----------|--------0--------0----------|
-----0--------0--------0----|-----0--------0--------0----|
-----------0--------0-------|-----------0--------0-------|
----------------------------|----------------------------|
--3-------------------------|--3-------------------------|


----------------------------|----------------------------|
--------1--------1----------|--------0--------0----------|
-----0--------0--------0----|-----0--------0--------0----|
-----------2--------2-------|-----------0--------0-------|
--3-------------------------|----------------------------|
----------------------------|--3-------------------------|


----------------------------|---------------------------||
--------3--------3----------|--------3--------3---------||
-----2--------2--------2----|-----2--------2--------2--o||
--0--------0--------0-------|--0--------0--------0-----o||
----------------------------|---------------------------||
----------------------------|---------------------------||


----------------------------|----------------------------|
--------3--------3----------|--------3--------3----------|
-----2--------2--------2----|-----2--------2--------2----|
--0--------0--------0-------|--0--------0--------0-------|
----------------------------|----------------------------|
----------------------------|----------------------------|


----------------------------|----------------------------|
--------0--------0----------|--------1--------1----------|
-----0--------0--------0----|-----0--------0--------0----|
-----------0--------0-------|-----------2--------2-------|
----------------------------|--3-------------------------|
--3-------------------------|----------------------------|


----------------------------|----------------------------|
--------3--------3----------|--------0--------0----------|
-----2--------2--------2----|-----0--------0--------0----|
--0--------0--------0-------|-----------0--------0-------|
----------------------------|----------------------------|
----------------------------|--3-------------------------|


----------------------------|----------------------------|
--------0--------0----------|--------0--------0----------|
-----0--------0--------0----|-----0--------0--------0----|
-----------0--------0-------|-----------0--------0-------|
----------------------------|----------------------------|
--3-------------------------|--3-------------------------|


----------------------------|----------------------------|
--------0--------0----------|--------0--------0----------|
-----0--------0--------0----|-----0--------0--------0----|
-----------0--------0-------|-----------0--------0-------|
----------------------------|----------------------------|
--3-------------------------|--3-------------------------|


----------------------------|----------------------------|
--------0--------0----------|--------1--------1----------|
-----0--------0--------0----|-----0--------0--------0----|
-----------0--------0-------|-----------2--------2-------|
----------------------------|--3-------------------------|
--3-------------------------|----------------------------|


----------------------------|----------------------------|
--------0--------0----------|--------3--------3----------|
-----0--------0--------0----|-----2--------2--------2----|
-----------0--------0-------|--0--------0--------0-------|
----------------------------|----------------------------|
--3-------------------------|----------------------------|


----------------------------|----------------------------|
--------1--------1----------|--------0--------0----------|
-----0--------0--------0----|-----0--------0--------0----|
-----------2--------2-------|-----------0--------0-------|
--3-------------------------|----------------------------|
----------------------------|--3-------------------------|


----------------------------|----------------------------|
--------0--------0----------|--------1--------1----------|
-----0--------0--------0----|-----0--------0--------0----|
-----------0--------0-------|-----------2--------2-------|
----------------------------|--3-------------------------|
--3-------------------------|----------------------------|


----------------------------|----------------------------|
--------0--------0----------|--------3--------3----------|
-----0--------0--------0----|-----2--------2--------2----|
-----------0--------0-------|--0--------0--------0-------|
----------------------------|----------------------------|
--3-------------------------|----------------------------|


----------------------------|----------------------------|
--------3--------3----------|--------0--------0----------|
-----2--------2--------2----|-----0--------0--------0----|
--0--------0--------0-------|-----------0--------0-------|
----------------------------|----------------------------|
----------------------------|--3-------------------------|


----------------------------|----------------------------|
--------1--------1----------|--------3--------3----------|
-----0--------0--------0----|-----2--------2--------2----|
-----------2--------2-------|--0--------0--------0-------|
--3-------------------------|----------------------------|
----------------------------|----------------------------|


----------------------------|----------------------------|
--------0--------0----------|--------0--------0----------|
-----0--------0--------0----|-----0--------0--------0----|
-----------0--------0-------|-----------0--------0-------|
----------------------------|----------------------------|
--3-------------------------|--3-------------------------|


----------------------------|----------------------------|
--------0--------0----------|--------0--------0----------|
-----0--------0--------0----|-----0--------0--------0----|
-----------0--------0-------|-----------0--------0-------|
----------------------------|----------------------------|
--3-------------------------|--3-------------------------|


----------------------------|----------------------------|
--------1--------1----------|--------0--------0----------|
-----0--------0--------0----|-----0--------0--------0----|
-----------2--------2-------|-----------0--------0-------|
--3-------------------------|----------------------------|
----------------------------|--3-------------------------|


----------------------------|----------------------------|
--------3--------3----------|--------1--------1----------|
-----2--------2--------2----|-----0--------0--------0----|
--0--------0--------0-------|-----------2--------2-------|
----------------------------|--3-------------------------|
----------------------------|----------------------------|


----------------------------|----------------------------|
--------0--------0----------|--------0--------0----------|
-----0--------0--------0----|-----0--------0--------0----|
-----------0--------0-------|-----------0--------0-------|
----------------------------|----------------------------|
--3-------------------------|--3-------------------------|


----------------------------|----------------------------|
--------1--------1----------|--------0--------0----------|
-----0--------0--------0----|-----0--------0--------0----|
-----------2--------2-------|-----------0--------0-------|
--3-------------------------|----------------------------|
----------------------------|--3-------------------------|


----------------------------|----------------------------|
--------3--------3----------|--------3--------3----------|
-----2--------2--------2----|-----2--------2--------2----|
--0--------0--------0-------|--0--------0--------0-------|
----------------------------|----------------------------|
----------------------------|----------------------------|


----------------------------|----------------------------|
--------0--------0----------|--------0--------0----------|
-----0--------0--------0----|-----0--------0--------0----|
-----------0--------0-------|-----------0--------0-------|
----------------------------|----------------------------|
--3-------------------------|--3-------------------------|


----------------------------|----------------------------|-------||
--------0--------0----------|--------0--------0----------|-------||
-----0--------0--------0----|-----0--------0--------0----|-------||
-----------0--------0-------|-----------0--------0-------|-------||
----------------------------|----------------------------|-------||
--3-------------------------|--3-------------------------|--3----||


doprovod + solova v pdf:
https://www.dropbox.com/s/wcke78kpj4p59yw/
Nedv%C4%9Bd%20F-Ostrov%20jm%C3%A9nem%20ml%C3%A1d%C3%AD.pdf

 
»
Tvoje obľúbené položky
Tvoje obľúbené položky
»
Nové albumy interpreta
Nové albumy interpreta
6
2xCD Nedved Frantisek Galerie pisni
2xCD Galerie pisni
CSL Nedvedi Honza A Frantisek Frantisek/slidepack
CSL Frantisek/slidep
ack
3xCD NedvĚd FrantiŠek NevÁhej a vejdi, druhÉ podÁnÍ, tŘetÍ pokus
3xCD Neváhej a
vejdi, druhé
podání,
tŘetí pokus
6xCD Varoius 100 nej country
6xCD 100 nej country
CD Nedved Frantisek Pata
CD Pata
CD Nedved Frantisek Ctvrta sada
CD Ctvrta sada

»
Najnovšie videá
Najnovšie videá

Frantiek Nedvd - Ostrov jmnem mldi.w

Frantiek Nedvd 2/6 - Nic vc - Jsem je

Frantiek Nedvd Ostrov jmnem mld

Nedved Frantisek Ostrov jmenem mladi

Nedved Frantisek Ostrov jmenem mladi /c

Frantiek Nedvd - Ostrov jmnem mld
»
Najnavštevovanejšie piesne
Najnavštevovanejšie piesne
Devatenáct - akordy a text

Podvod - akordy a text

Cherokee Bill - akordy a text

Můj zvon - akordy a text

Valčíček - text

Jablůňka - akordy a text

Jsem jenom chlap - akordy a text

Písnička je lék - akordy a text

Svítání - akordy a text

Podvod - text

Klekání - akordy a text

Tvou vůni dávno znám - taby

Kočovní herci - taby

Řemeslo - akordy a text

Kočovní herci - akordy a text

Námořnická balada / Bar u Zlaté plachty - text

Prázdný dům - akordy a text

Kočovní herci - akordy a text

Rozchod - akordy a text

Zlatá rybka - akordy a text

viac




home | interpreti | register piesní | cd & dvd shop | pripomienky/nápady | kontakt | ochrana údajov | inzercia

TOPlist