Spirituál Kvintet

piesne (134)

  texty (124) / preklady (0)
  akordy (109) / taby (3)
  noty (1) / slideshow (0)

články (37)
fotogaléria
diskusia
videá
diskografia
v obchode
odkazy
koncerty
sťahuj



pridaj vlastný článok

Bílé Inferno:
Folkové prázdniny oznamují „snový“ výběr domácích účinkujících - Festivaly Každé setkání s Ivou Bittovou, Anetou Langerovou, Katkou García, písničkář... - folktime.cz


Brontosauři:
Pesničkár Honza Nedvěd stráca sluch. Hrozí mu, že ohluchne - Pesničkár Honza Nedvěd stráca sluch. Hrozí mu, že ohluchne Je psychicky na d... - aktuality.sk


Irena Budweiserová:
Klavír, naléhavost a Spirituál kvintet - 11.11.2012 12:00, Daniel Mareš Na novou desku zpěvačky a bývalé dlouholeté členky ... - musicserver.cz


Spirituál Kvintet:
Pocta Petrovi je názov štvrtého ročníka country spomienkového koncertu na
speváka a skladateľa Petra Dulu (1981-2009) ktorý predčasne odišiel do country
neba. Prostredníctvom svojich piesní však zostane v srdciach svojich fanúšikov
navždy.
- Súčasťou spomienkového večera, ktorý sa odohral v Košiciach, bol aj krst nového CD Pet... - musicpress.sk


Marilyn Manson:
Nová alba: Spirituál kvintet, Jack White i Marilyn Manson - novinky.cz


Spirituál Kvintet:
Spirituál kvintet: Snad energie vydrží - denik.cz


Spirituál Kvintet:
Spirituál Kvintet vystoupí v Žatci - ceskenoviny.cz


Spirituál Kvintet:
Spirituál kvintet vystúpi 9. marca v Bratislave - Po dlhšej odmlke sa na Slovensko vráti česká folková legenda Spirituál kvintet, ktorá sa ...


Spirituál Kvintet:
Spirituál kvintet: Žasneme, ale svůj program máme stále nabitý - denik.cz


Spirituál Kvintet:
Spirituál kvintet 1960–2010: Sto nejkrásnějších písní (+1) - countryworld.cz


 

Spirituál Kvintet

Fanúšikov: 8



A B C Č D E F G H CH I J K L Ľ M N O P Q R S Š T U V W X Y Z Ž



ako:
Spirituál Kvintet - Ten širý proud
Spirituál Kvintet - Ten širý proud

tlač

edituj
Rok vzniku: 1969
V originále: The Water Is Wide
Poznámka: ladění kyt. Open Dsus4

Pesničku videlo 4519 návštevníkov.

Kvalita tabov : bez hodnotenia
Hodnotilo ľudí: 0 ohodnoť aj ty
Prispievateľ:

petr554
  *** Autor textu: trad. / Tichota Jiří *** Autor hudby: trad.
Legend
L - tied note
x - dead note
h - hammer on/pull off
b - bend
s - slide
~ - vibrato
g - ghost note
> - accentuated note
t - trill
M - palm mute
. - staccato
P - popping (bass)
S - slapping (bass)
+ - tapping
W - wide vibrato
< - fade in
w - whammy bar
= - tremolo picking
v - brush up
^ - brush down
V - pick stroke up
n - pick stroke down


Ladění: Open Dsus4 (dAGDAD)
takt: 4/4

D |--------------0h-2h-4--4L------|--4--4----------------------------|
A |-------------------------------|-----------------0L-0-------------|
G |-----------2-------------------|--------------2-------------------|
D |-------------------------------|-----------0----------------------|
A |-------------------------------|----------------------------------|
D |-------------------------------|--------0-------------------------|


-----------2--0-------------------------------------|
-----------------2L-2--0L---------------------------|
--------------------------------0-------------------|
-----------------------------0----------------------|
----------------------------------------------------|
--------------------------5-------------------------|


-----------------0-------------|--------------0----------------|
--0-----------0-----0----------|-----------0--------4--5L------|
-----------2--------------2----|-------------------------------|
--------0--------------0-------|-------------------------------|
-------------------------------|-------------------------------|
-----4-------------------------|--------------------------0----|


-----------------2-------------|-----------2--4--5L-5--2L------|
--5-----------5-----5----------|--------5----------------------|
-----------2-------------------|--------4----------------------|
--------4--------------4-------|--------0----------------------|
-----2-------------------------|-------------------------------|
-------------------------------|--------------------------5----|


--2--------------2-------------|--------2-----4--5L-5--7L---------------|
--------------0----------------|--------0--------0g---------------------|
-----------0-------------------|--------2-------------------------------|
--------2----------------------|--------2-------------------------------|
-----0-------------------------|--------0--------------------0----------|
-------------------------------|----------------------------------------|


--7--------------7-------------|--------7-----4--2L-2--4L------|
--------------0----------------|--------5----------------------|
--------0----------------------|--------0----------------------|
-----------4-------------------|-------------------------------|
-------------------------------|-------------------------------|
-----0-------------------------|-------------------------------|


--4--------------4-------------|--------4--2--0----------------|
--------------0-----0----------|--------0-----------2--0L------|
-----------0-------------------|--------0----------------------|
--------0--------------0-------|-------------------------------|
-------------------------------|-------------------------------|
-----5-------------------------|-------------------------------|


-----------------0-------------|-----------------0-----0----------|
--0-----------0----------------|--------0.------------------------|
-----------2-------------------|--------0.----4s----0-------------|
--------0----------------------|----------------------------------|
-------------------------------|--------0.------------------------|
-----4-------------------------|--------------------------2-------|


-------------------------------------------------------|
-------------------------------------------------------|
-------------------------------------------------------|
--0--------------2h-4L-------4-----2L----2-----0-------|
-------------------------------------------------------|
-----0-------------------------------------------------|


--4.----------0h-2h-4--4L---------------|--4--4----------------------------|
--5.------------------------------------|-----------------0L-0-------------|
--2.-------2----------------------------|--------------2-------------------|
--------------------------0.------------|-----------0----------------------|
----------------------------------------|----------------------------------|
----------------------------------------|--------0-------------------------|


-----------2--0-------------------------------------|
-----------------2L-2--0L---------------------------|
--------------------------------0-------------------|
-----------------------------0----------------------|
----------------------------------------------------|
--------------------------5-------------------------|

^ ^ ^
-----------------0-------------|--------------0----------------|
--0-----------0-----0----------|-----------0--------4s-5L------|
-----------2--------------2----|-------------------------------|
--------0--------------0-------|-------------------------------|
-------------------------------|-------------------------------|
-----4-------------------------|--------------------------0----|


-------------------------------|-----------2--4--5L-5--2L---------------|
--5-----------5L-5-------------|--------5-------------------------------|
-----------2-------------------|--------4--------------------------0----|
--------4----------------------|--------0-------------------------------|
-----2-----------------0-------|----------------------------------------|
-------------------------------|--------------------------5-------------|


--2--------------2-------------|--------2-----4--5L-5s-7L------|
--------------0----------------|--------0----------------------|
-----------0-----------0-------|--------0----------------------|
--------2----------------------|--------2----------------------|
-----0-------------------------|--------------------------0----|
-------------------------------|-------------------------------|


--7--------------7-------------|
--------------5--------5-------|
-----------5--------------5----|
--------5----------------------|
-------------------------------|
-----0-------------------------|

^ ^ ^ ^
--------------7h-5--------------------------4L---------|
--------------5-----------9-----------7----------------|
--------------5----------------------------------------|
-------------------------------------------------------|
--------------------------------------------------0----|
-------------------------------------------------------|

^ ^
--4--------------4L------------|--------4s-2--0-----------4-------------|
--------------0----------------|--------0--------2L-2--0L---------------|
-----------0-------------------|--------0-------------------------------|
--------0----------------------|--------0-------------------------------|
-------------------------------|----------------------------------------|
-----5-------------------------|----------------------------------------|

^ ^
-----------------0-------------|
--0-----------0-----0----------|
-----------2-----------2h-0----|
--------0----------------------|
-------------------------------|
-----4-------------------------|

^ ^
-----------------0-----0L---------------------------|
-----------0h-2-----2-------------------------------|
--------------------------------0-------------------|
-----------------------------2----------------------|
----------------------------------------------------|
--------------------------2-------------------------|


--0-----------------------0L-0----------------------------------|
--------------------------0L-0----------------------------------|
--------------------------0L-0----------------------------------|
--------------------------2h-4L-------4-----2L----2-------------|
----------------------------------------------------------------|
--------------0-------------------------------------------------|


--0-----------0h-2h-4--4L------|--4-----------4--------4--0----|
-------------------------------|-----------0--0--------0-------|
-----------2-------------------|-----------2--2-----2--2-------|
--0----------------------------|-----------0--0--------0-------|
-------------------------------|-----------0-------------------|
--------------------------0----|-----------0-----0-------------|


--------2-----0-------------------------|
-----0-----------2L-2--0L---------------|
-----------------0L-0--------0----------|
-----------------------------------0----|
----------------------------------------|
--------------------------5-----5-------|


--------0--0L-0-----0--0-----0-----0----|
--0--0-----------0-----------0-----0----|
-----------------------------0-----0----|
-----------------------------0-----0----|
----------------------------------------|
--------------------------4-----2-------|


-----------0L-0--------------0-----0----|
-----------------4L-4--5L----0-----4----|
--------2--------------------2-----2----|
-----0-----------------------0-----0----|
--------------------------------0-------|
--------------------------0-------------|


--------------------------------0-------------------|
--5--------5L-5-----------------5-----------5-------|
-----------------------------2--2--------2--0--0----|
-----------------------------x--4-----------0--0----|
--------------------------2-----------2-------------|
----------------------------------------------------|


-----------2--4--5L-5--2L---------------|--2--------2--2--------2--2----|
--------5--------------------5----------|-----------0--0--------0--0----|
-----------------------------4-----0----|--------0--0--------0--0-------|
-----------------------------0-----0----|-----------2-----------2-------|
----------------------------------------|-----0-----------0-------------|
--------------------------5-----5-------|-------------------------------|


--------------------------------------0h-2L----------2-----------4-----------5s-
--------------------------4s----------------------------------------------------
--------------------------------------------------------------------------------
--------------------------------------------------------------------------------
--------------------------------------------------------------------------------
--------------------------------------------------------------------------------


---------7L---------------|--7--------7--7--------7--7----|
--------------------------|-----------5--5--------5--5----|
--------------------------|--------5--5--------5--5-------|
--------------------------|-----------5-----------5-------|
---------------------0----|-----------------0-------------|
--------------------------|-----0-------------------------|


--7-----5--------------5L----5----------|
--------------9--7L-7--------5----------|
-----------------------------5-----5----|
-----------------------------------5----|
--------------------------0-----0-------|
----------------------------------------|


--5--------------------4L---------------|
--------9-----7--5L-5-------------------|
-----------------------------5-----5----|
-----------------------------5-----5----|
--------------------------0-----0-------|
----------------------------------------|


--4--------4L-4-----------------4-----------4-------|
--------------------------------0-----------0-------|
-----------------------------0--0-----------0-------|
--------------------------------0-----------0-------|
----------------------------------------------------|
--------------------------5-----------5-------------|


--------4--2--0-------------------------|
-----------------2L-2--0L----0----------|
-----------------------------0-----0----|
-----------------------------0-----0----|
----------------------------------------|
--------------------------5-----4-------|


-----------------0L-0-------------------|
--0--------------------------0-----0----|
-----------------------0L----0-----0----|
-----------------------------0-----0----|
----------------------------------------|
--------------------------4-----4-------|


-----------------0L-0--0L---------------|
--------0-----2-------------------------|
--0--0-----------------------0-----0----|
-----------------------------2-----2----|
----------------------------------------|
--------------------------2-----2-------|


--0--------------0L-0----------------------------------|
-----------------0L-0----------------------------------|
-----------------0L-0----------------------------------|
-----------------2h-4L-------4-----2L----2-----0-------|
-----------------0-----------------0L----0-------------|
-----0-------------------------------------------------|


--------------------------0-------------|
--------------5-----4--5L-0-------------|
-----------2--------------2-------------|
--------------------------0-------------|
--------------------------0-------------|
--------------------------0-------------|


----------------------------------------|
--5--------5L-5-------------------------|
----------------------------------------|
-----------------------------4-----4----|
--------------------------2-----2-------|
----------------------------------------|


----------------------------------------|
-----------5L-5--4L-4--5L---------------|
----------------------------------------|
-----------------------------4-----4----|
--------------------------2-----0-------|
----------------------------------------|


----------------------------------------|
--5--------5L-5-------------------------|
-----4L-4-------------------------------|
-----------------------------0-----0----|
----------------------------------------|
--------------------------5-----5-------|


----------------------------------------------------|
-----------5L-5--4L-4--5L---------------------------|
-----4L-4-------------------------------------------|
--------------------------------0-----------0--2----|
----------------------------------------------------|
--------------------------5-----------4-------------|


--------------------------------------2-------------|
--5--------------------4L----------5-----5-----4----|
--------------------------------2-------------------|
-----------------------------4----------------------|
----------------------------------------------------|
--------------------------2-------------------------|


--------------------------------------------------2h-4-----------2--------------
--4--------------------------------------------------------------------------4--
--------------------------------------------------------------------------------
--------------------------------------------------------------------------------
--------------------------------------------------------------------------------
--------------------------------------------------------------------------------


---------0L------------------------------------|--0-----4L----4--2L-2s---------|
------------------------------4L-4-------------|--------5L----5--4L-4s---------|
---------------------------2-------------------|-------------------------------|
------------------------2----------------------|-------------------------------|
---------------------0-------------------------|-------------------------------|
-----------------------------------------------|--------------------------0L---|


--4----------------------------|----------------------------------------|
--5-----------5-----4--5L------|--5--------5L-5--4L-4--5L---------------|
-----------2-------------------|----------------------------------------|
-------------------------------|-----------------------------4----------|
-------------------------------|--------------------------2-----x--0----|
--------------------------0----|----------------------------------------|


----------------------------------------|
--5--------5L-5--4L-4--5L---------------|
----------------------------------------|
-----------------------------0-----0----|
----------------------------------------|
--------------------------5-----5-------|


--------------------------2-----------------------2h-4-----------2--------------
--5--------------------------------------------------2--------------------------
--------------------------------------------------------------------------------
--------------------------------------------------------------------------------
--------------------------------------------------------------------------------
--------------------------------------------------------------------------------


-----------------------------------------------|
---------5L----------------2-------------------|
---------2L----------------2-------------------|
------------------------4--4-------------------|
-----------------------------------------------|
---------------------2-------------------------|


----------------------------------------|
--5--4L-4--2L-2--4L-4-------------------|
--2--2L-2--2L-2--2L-2-------------------|
-----------------------------2-----2----|
--------------------------0-----0-------|
----------------------------------------|


----------------------------------------------------|
--5--------5L-5--4L-4--5L---------------------------|
-----------2L-2--0L-0--0L----x----------------------|
--------------------------------4-------------------|
--------------------------2-----------2-----0-------|
----------------------------------------------------|


-----------------2L-2s-4L---------------------------|
--5--------5L-5--4L-4s-5L---------------------------|
--0--0L-0--0L-0-------------------------------------|
--------------------------------0-----------0-------|
----------------------------------------------------|
--------------------------5-----------5--------0----|


--4-----7-----5s-4L-4--2L------|
--5-----9-----7s-5L-5--0L------|
-------------------------------|
-------------------------------|
-------------------------------|
--------------------------0----|


--2-----------0-------------------------------------|
--0-----------------4s-5L----------0L-0-------------|
--------------------------------0-------------------|
-----------------------------2----------------------|
--------------------------0-------------------------|
----------------------------------------------------|


-------------------------------|
--5-----------5----------------|
--------2-----------2-----2----|
-----------4-----------4-------|
-----2-----------2-------------|
-------------------------------|


----------------------------------------------------|
-----------5L-5--4L-4--5L---------------------------|
-----------0L-0--0L-0--------2----------------------|
--------------------------------4-------------------|
--------------------------2-----------2-----0-------|
----------------------------------------------------|


----------------------------------------|
--5--------5L-5-------------------------|
-----4L-4--------------4L---------------|
-----------------------------0-----0----|
----------------------------------------|
--------------------------5-----5-------|


----------------------------------------|
-----------5L-5--4L-4--5L---------------|
--4--------------0L-0-------------------|
-----------------------------0-----0----|
----------------------------------------|
--------------------------5-----4-------|


--------------2-------------------------------------|
--5--------------5L-5--4L---------------------------|
-----------------------------------2L-2-------------|
--------------------------------2-------------------|
-----------------------------2----------------------|
--------------------------2-------------------------|


--------------------2-----2h-4h-2-----------0L------------------------------|
--4-----------------------------------4-------------------------------------|
--------------------------------------------------------2-------------------|
-----------------------------------------------------2----------------------|
--------------------------------------------------0-------------------------|
----------------------------------------------------------------------------|


--0-----4L----4--2L-2s---------|--4--7-------------||
--------5L----5--4L-4s---------|--5--7-------------||
-------------------------------|-----7-------------||
-------------------------------|-----7-------------||
-------------------------------|-----7-------------||
--------------------------0----|--------------0----||


tab v pdf
https://www.dropbox.com/s/7ia0hwplivfotub/
Spiritual%20-%20Ten%20siry%20proud.pdf

 
»
Tvoje obľúbené položky
Tvoje obľúbené položky
»
Nové albumy interpreta
Nové albumy interpreta
11xCD+DVD Spiritual Kvintet Albovy box
11xCD+DVD Albovy box
CD Spiritual Kvintet Cerstvy vitr
CD Cerstvy vitr
2xCD Spiritual Kvintet Vse o vanocich/box
2xCD Vse o
vanocich/box
4xCD Spiritual Kvintet Sto nejkrasnejsich pisni (+1)
4xCD Sto
nejkrasnejsich
pisni (+1)
CD Spiritual Kvintet Zatim dobry...
CD Zatim dobry...

»
Najnovšie videá
Najnovšie videá

TEN ŠIRÝ PROUD - Zlaté časy ČESKÉ COUNTR

Helena Maršálková a František Nedvěd - T

39 Spirituál kvintet Širý proud

Tichá Dohoda 25 let - Širý proud

Ten širý proud+Za řekou snů

Ten širý proud
»
Najnavštevovanejšie piesne
Najnavštevovanejšie piesne
Batalion - akordy a text

Batalion 2.verze - akordy a text

Batalion - akordy a text

Bim Bam - akordy a text

Stará archa - akordy a text

Mojžíš - akordy a text

Zelené pláně - taby

Ten širý proud - taby

Za svou pravdou stát - akordy a text

Válka růží - akordy a text

viac




home | interpreti | register piesní | cd & dvd shop | pripomienky/nápady | kontakt | ochrana údajov | inzercia
Copyright © Pavol Bacigál, 2000-2017. Všetky práva vyhradené.
TOPlist