Jakub Smolík

piesne (103)

  texty (91) / preklady (0)
  akordy (29) / taby (6)
  noty (0) / slideshow (0)

články (11)
fotogaléria
diskusia
videá
diskografia
v obchode
odkazy
koncerty
sťahuj



pridaj vlastný článok

Jakub Smolík:
Jakub Smolík požiadal v Ríme priateľku o ruku - Český spevák Jakub Smolík požiadal svoju dlhoročnú priateľku a matku svojej päť...


Jakub Smolík:
Jakub Smolík se s albem Paleta života moc nevytáhl - denik.cz


Jakub Smolík:
Jakub Smolík: Píseň je o rakovině. Pro mě dost osobní - denik.cz


Black:
Novinkové album 2008 „GENIUS LOCI“ kapely ZLATÝ VOČI - Novinkové album 2008 „GENIUS LOCI“ kapely ZLATÝ VOČI v těchto dnech v prodeji! ...


Jakub Smolík:
Smolík: Chci ještě dvě děti! - dama.cz


Jakub Smolík:
Smolík: Sladké ano, sex ne! - blesk.cz


4tet:
V čele hitparády je po dvou týdnech opět Aneta Langerová - ihned.cz


Country:
Lešek Semelka: „Michalovi Tučnému jsem věřil!“ - countryworld.cz


Band A:
Stodola Michala Tučného 2004 již tuto sobotu - Stodola Michala Tučného 2004 již tuto sobotu Přidáno: 19. 08. 2004, v 16:40 Autor: ... - countryworld.cz


Pavel Dobeš:
Stodola Michala Tučného: Místo Vondráčkové přijede Vondráček - Stodola Michala Tučného: Místo Vondráčkové přijede Vondráček Přidáno: 08. 08.... - countryworld.cz


 

Jakub Smolík

Fanúšikov: 3



A B C Č D E F G H CH I J K L Ľ M N O P Q R S Š T U V W X Y Z Ž



ako:
Jakub Smolík - Jen blázen žárlí
Jakub Smolík - Jen blázen žárlí

tlač

edituj
Rok vzniku: 2014
Poznámka: Popron music & publishing s.r.o.

Pesničku videlo 2994 návštevníkov.

Kvalita tabov : bez hodnotenia
Hodnotilo ľudí: 0 ohodnoť aj ty
Prispievateľ:

petr554
  *** Autor textu: Jaroslav Machek *** Autor hudby: Zdeněk Barták ml.
Copyright: 2014 Popron music & publishing s.r.o.

Instructions: Tempo 66bpm
Tempo = 85
Blazen zarli

Legend
L - tied note
x - dead note
h - hammer on/pull off
b - bend
s - slide
~ - vibrato
g - ghost note
> - accentuated note
t - trill
M - palm mute
. - staccato
P - popping (bass)
S - slapping (bass)
+ - tapping
W - wide vibrato
< - fade in
w - whammy bar
= - tremolo picking
v - brush up
^ - brush down
V - pick stroke up
n - pick stroke down


E |-------|-------|-------|-------|-------|
B |-------|-------|-------|-------|-------|
G |-------|-------|-------|-------|-------|
D |-------|-------|-------|-------|-------|
A |-------|-------|-------|-------|-------|
E |-------|-------|-------|-------|-------|


-----------2--------2--------------2--------2-------|
--------3-----3-----3-----------3-----3--------3----|
-----2-----------2-----------2-----------2----------|
--0--------------------0L-0-------------------------|
----------------------------------------------------|
----------------------------------------------------|


-----------------------------------0--------0L-0----|
--------2L-2--2--------2-----2L-2-----2-------------|
-----2-----------2-----------2-----------2s-4-------|
--------2-----------2-------------------------------|
--0-----------------------0-------------------------|
----------------------------------------------------|


-----------3--------3-----------3L-3--------3-------|
--------3-----3--------3--------3-----3--------3----|
-----4-----------4--------4--------------4----------|
----------------------------------------------------|
----------------------------------------------------|
--3-----------------------3-------------------------|


--------2L-2--------2--------------0-----0L-0-------|
--------3-----3--------3--------2-----2--------2----|
-----2-----------2--------2--------------2----------|
--0-------------------------------------------------|
--------------------------0-------------------------|
----------------------------------------------------|


-----------0--------0--------------2--------2-------|
--------2-----2--------2-----3L-3-----3--------3----|
-----2-----------2-----------2-----------2----------|
--------------------------0-----------0-------------|
--0-------------------------------------------------|
----------------------------------------------------|


-----------2--------2--------------0--------0-------|
--------3-----3--------3--------2-----2L-2--2-------|
--2--------------2-----------2--------2-------------|
--0-------------------------------------------------|
--------------------------0-------------------------|
----------------------------------------------------|


-----------------------------------3--------3-------|
-----2L-2-----2-----------------3-----3--------3----|
-----2-----------2-----4-----4-----------4----------|
-----------2--------2-------------------------------|
--0-------------------------------------------------|
--------------------------3--------------------3----|


-----------3--------3L-3-----------2-----2L-2-------|
-----3L-3-----3-----3-----------3-----3--------3----|
-----3-----------3-----------2-----------2----------|
--------------------------0-------------------------|
----------------------------------------------------|
----------------------------------------------------|


--------------------0--------------0----------------|
--------2L-2--2--------2--------2-------------------|
-----2-----------2-----------0----------------------|
--------2-----------------2-------------------------|
--0-----------------------0-------------------------|
----------------------------------------------------|


-----------2--2--------2--2-----2--2--2--2--2--2----|
-----------3--3--------3--3-----3--3--3--3--3--3----|
-----------2--2--------2--2-----2--2--2--2--2--2----|
--4-----------------------4-------------------------|
----------------------------------------------------|
----------------------------------------------------|


--3--------3--3--------3--3-----3--3--3--3--3--3----|
--3--------3--3--------3--3-----3--3--3--3--3--3----|
--4--------4--4--------4--4-----4--4--4--4--4--4----|
--5-----------------------5-------------------------|
--5-----------------------5-------------------------|
----------------------------------------------------|


--0--------0--0--------0--0-----0--0--0--0--0--0----|
--0--------0--0--------0--0-----0--0--0--0--0--0----|
--0--------0--0--------0--0-----0--0--0--0--0--0----|
--2--------2-----------2--2-----2-----2-------------|
--2-----------------------2-------------------------|
----------------------------------------------------|


--0--------0--0--------0--0-----0--0--0-----0--0----|
--2--------2--2--------2--2-----2--2--2-----2--2----|
--0--------0--0--------0--0-----0--0--0-----0--0----|
--2--------2--------------2-----2--2--2-----2-------|
--0-----------------------0-----------0L-0----------|
----------------------------------------------------|


--2--------2--2--------2--2-----2--2--2--2--2--2----|
--3--------3--3--------3--3-----3--3--3--3--3--3----|
--2--------2--2--------2--2-----2--2--2--2--2--2----|
--0-----------------------0-------------------------|
----------------------------------------------------|
----------------------------------------------------|


--3--------3--3--------3--3-----3--3--3--3--3--3----|
--0--------0--0--------0--0-----0--0--0--0--0--0----|
--0--------0--0--------0--0-----0--0--0--0--0--0----|
--0-----------------------0-------------------------|
----------------------------------------------------|
----------------------------------------------------|


--2--------2--2-----2--2--3L-3--0--0--0--0--0--0----|
--3--------3--3-----3--3--2L-2--2--2--2--2--2--2----|
--2--------2--2-----2--2--2L-2--0--0--0--0--0--0----|
--4L-4--------------------------2--2----------------|
--------------------------------0-------------------|
----------------------------------------------------|


--2--------2--2-----2--2--0-----0--0--0--0--0--0----|
--3--------3--3-----3--3--2-----2--2--2--2--2--2----|
--2--------2--2-----2--2--0-----0--0--0--0--0--0----|
--4L-4--------------------2-----2-----2-----2-------|
--------------------------0L-0----------------------|
----------------------------------------------------|


--2--------2--2--------2--2-----2--2--2--2--2--2----|
--3--------3--3--------3--3-----3--3--3--3--3--3----|
--2--------2--2--------2--2-----2--2--2--2--2--2----|
--4-----------------------4-------------------------|
----------------------------------------------------|
----------------------------------------------------|


--3--------3--3--------3--3-----3--3--3--3--3--3----|
--0--------0--0--------0--0-----0--0--0--0--0--0----|
--0--------0--0--------0--0-----0--0--0--0--0--0----|
--0-----------------------0-------------------------|
----------------------------------------------------|
----------------------------------------------------|


--0-----0-----0--------0--0-----0--0--0--0--0--0----|
--0-----0-----0--------0--0-----0--0--0--0--0--0----|
--0-----0-----0--------0--0-----0--0--0--0--0--0----|
--2--------2--2-----------2-------------------------|
--2-------------------------------------------------|
----------------------------------------------------|


--0--------0--0--------0--0-----0--0--0--0--0--0----|
--2--------2--2--------2--2-----2--2--2--2--2--2----|
--0--------0--0--------0--0-----0--0--0--0--0--0----|
--2--------2--------------2-------------------------|
--0-------------------------------------------------|
----------------------------------------------------|


--2--------2--2--------2--2-----2--2--2--2--2--2----|
--3--------3--3--------3--3-----3--3--3--3--3--3----|
--2--------2--2--------2--2-----2--2--2--2--2--2----|
--4-----------------------4-------------------------|
----------------------------------------------------|
----------------------------------------------------|


--3--------3--3--------3--3-----3--3--3--3--3--3----|
--0--------0--0--------0--0-----0--0--0--0--0--0----|
--0--------0--0--------0--0-----0--0--0--0--0--0----|
--0-----------------------0-----------0-------------|
----------------------------------------------------|
----------------------------------------------------|


--2--------2--2-----2--2--0-----0--0--0--0--0-------|
--3--------3--3-----3--3--2-----2--2--2--2--2-------|
--2--------2--2-----2--2--0-----0--0--0--0--0-------|
--4L-4--------4-----------2L-2--------2--------2----|
----------------------------------------------------|
----------------------------------------------------|


--2--------2--2-----2--2--0-------------------------|
--3--------3--3-----3--3--2-------------------------|
--2--------2--2-----2--2--0-------------------------|
--4L-4--------4-----------2-------------------------|
--------------------------0L----------0-------------|
----------------------------------------------------|

 
»
Tvoje obľúbené položky
Tvoje obľúbené položky
»
Nové albumy interpreta
Nové albumy interpreta
6
CD Smolik Jakub Stastne a vesele vanoce
CD Stastne a vesele
vanoce
KNI Jakub Smolík Jakub smolík - vítám každý nový den cd
KNI Jakub smolík -
vítám každþ
novþ den cd
3xCD Smolik Jakub 55 hitu - best of
3xCD 55 hitu - best
of
CD Smolik Jakub Neuveritelne prihody jakuba smolika
CD Neuveritelne
prihody jakuba
smolika
CD Smolik Jakub Dopisy lasky - vzpominka na blanik
CD Dopisy lasky -
vzpominka na
blanik
CD Smolik Jakub Paleta zivota
CD Paleta zivota

»
Najnovšie videá
Najnovšie videá

Jakub Smolk - Blzen rl

Blzen rl- Jakub Smolk (Text)

Jakub Smolk-Jen blzen rl

Jakub Smolik 'popelky'

Jakub Smolk (Live) "Jen blzen rl" 6

Jakub Smolk- Jen blzen rl
»
Najnavštevovanejšie piesne
Najnavštevovanejšie piesne
Haleluja - akordy a text

Říkej mi táto - akordy a text

Haleluja - akordy a text

Jen blázen žárlí - akordy a text

Až se ti jednou bude zdát - akordy a text

ŘÍKEJ MI TÁTO - text

Víš - akordy a text

Haleluja - taby

Popelky - akordy a text

Andělé pláčou - akordy a text

Až mě andělé - akordy a text

Ave Maria - akordy a text

Stýskání - akordy a text

Návrát - akordy a text

Ó mámo - akordy a text

Nejsi má - akordy a text

Haleluja - text

Prý chlapi nebrečí - akordy a text

Prý chlapi nebrečí - akordy a text

Slzy sedmi bolestí - text

viac




home | interpreti | register piesní | cd & dvd shop | pripomienky/nápady | kontakt | ochrana údajov | inzercia

TOPlist