Jakub Smolík

piesne (103)

  texty (91) / preklady (0)
  akordy (29) / taby (6)
  noty (0) / slideshow (0)

články (11)
fotogaléria
diskusia
videá
diskografia
v obchode
odkazy
koncerty
sťahuj



pridaj vlastný článok

Jakub Smolík:
Jakub Smolík požiadal v Ríme priateľku o ruku - Český spevák Jakub Smolík požiadal svoju dlhoročnú priateľku a matku svojej päťročnej dcé...


Jakub Smolík:
Jakub Smolík se s albem Paleta života moc nevytáhl - denik.cz


Jakub Smolík:
Jakub Smolík: Píseň je o rakovině. Pro mě dost osobní - denik.cz


Black:
Novinkové album 2008 „GENIUS LOCI“ kapely ZLATÝ VOČI - Novinkové album 2008 „GENIUS LOCI“ kapely ZLATÝ VOČI v těchto dnech v prodeji! ZLATÝ...


Jakub Smolík:
Smolík: Chci ještě dvě děti! - dama.cz


Jakub Smolík:
Smolík: Sladké ano, sex ne! - blesk.cz


4tet:
V čele hitparády je po dvou týdnech opět Aneta Langerová - ihned.cz


Country:
Lešek Semelka: „Michalovi Tučnému jsem věřil!“ - countryworld.cz


Band A:
Stodola Michala Tučného 2004 již tuto sobotu - Stodola Michala Tučného 2004 již tuto sobotu Přidáno: 19. 08. 2004, v 16:40 Autor: Jiří ... - countryworld.cz


Pavel Dobeš:
Stodola Michala Tučného: Místo Vondráčkové přijede Vondráček - Stodola Michala Tučného: Místo Vondráčkové přijede Vondráček Přidáno: 08. 08. 2004, v 21... - countryworld.cz


 

Jakub Smolík

Fanúšikov: 3



A B C Č D E F G H CH I J K L Ľ M N O P Q R S Š T U V W X Y Z Ž



ako:
Jakub Smolík - Haleluja
Jakub Smolík - Haleluja

tlač

edituj
Rok vzniku: 2010
V originále: Hallelujah
Pesničku videlo 5148 návštevníkov.

Kvalita tabov : bez hodnotenia
Hodnotilo ľudí: 0 ohodnoť aj ty
Prispievateľ:

petr554
  *** Autor textu: Hana Sorrosová (cz) Leonard Cohen (en) *** Autor hudby: Leonard Cohen
Tempo = 100
Lead guitar

Legend
L - tied note
x - dead note
h - hammer on/pull off
b - bend
s - slide
~ - vibrato
g - ghost note
> - accentuated note
t - trill
M - palm mute
. - staccato
P - popping (bass)
S - slapping (bass)
+ - tapping
W - wide vibrato
< - fade in
w - whammy bar
= - tremolo picking
v - brush up
^ - brush down
V - pick stroke up
n - pick stroke down


E |----------------------|----------------------|----------------------|
B |-----------1----------|-----------1----------|-----------1----------|
G |--------0-------------|--------2-------------|--------0-------------|
D |-----2----------------|-----2----------------|-----2----------------|
A |--3-----------3--2----|--0-----------0--2----|--3-----------3--2----|
E |----------------------|----------------------|----------------------|


----------------------||---------------------|----------------------|
-----------1----------||----------1----------|-----------1----------|
--------2-------------||o------0-----0-------|--------2-----2-------|
-----2----------------||o---2-----------2----|-----2-----------2----|
--0-----------0--2----||-3-------------------|--0-------------------|
----------------------||---------------------|----------------------|


----------------------|----------------------|----------------------|
-----------1----------|-----------1----------|----------------------|
--------0-----0-------|--------2-----2-------|-----------2----------|
-----2-----------2----|-----2-----------2----|--------3-----3-------|
--3-------------------|--0-------------------|-----3-----------3----|
----------------------|----------------------|--1-------------------|


----------------------|----------------------|----------------------|
-----------0----------|-----------1----------|-----------0----------|
----------------------|--------0-----0-------|----------------------|
--------0-----0-------|-----2-----------2----|--------0-----0-------|
-----2-----------2----|--3-------------------|-----2-----------2----|
--3-------------------|----------------------|--3-------------------|


----------------------|----------------------|----------------------|
-----------1----------|----------------------|-----------1----------|
--------0-----0-------|----------------------|--------2-----2-------|
-----2-----------2----|--------3--------0----|-----2-----------2----|
--3-------------------|-----3--------2-------|--0-------------------|
----------------------|--1--------3----------|----------------------|


----------------------|----------------------|----------------------|
----------------------|-----------0----------|----------------------|
-----------2----------|----------------------|-----------0----------|
--------3-----3-------|--------0-----0-------|--------2-----2-------|
-----3-----------3----|-----2-----------2----|-----2-----------2----|
--1-------------------|--3-------------------|--0-------------------|


----------------------|----------|----------------------|----------------------|
-----------1----------|----------|----------------------|----------------------|
--------2-----2-------|----------|-----------2----------|-----------2----------|
-----2-----------2----|----------|--------3-----3-------|--------3-----3-------|
--0-------------------|--0-------|-----3-----------3----|-----3-----------3----|
----------------------|----------|--1-------------------|--1-------------------|


----------------------|----------------------|----------------------|
-----------1----------|-----------1----------|----------------------|
--------2-----2-------|--------2-----2-------|-----------2----------|
-----2-----------2----|-----2-----------2----|--------3-----3-------|
--0-------------------|--0-------------------|-----3-----------3----|
----------------------|----------------------|--1-------------------|


----------------------|----------------------|----------------------|
----------------------|-----------1----------|-----------0----------|
-----------2----------|--------0-----0-------|----------------------|
--------3-----3-------|-----2-----------2----|--------0-----0-------|
-----3-----------3----|--3-------------------|-----2-----------2----|
--1-------------------|----------------------|--3-------------------|


----------------------|---------------------||-------||
-----------1----------|---------------------||-------||
--------0-----0-------|--------------------o||-------||
-----2-----------2----|--------------------o||-------||
--3-------------------|--3-----------0--2---||--3----||
----------------------|---------------------||-------||

tab v pdf pro 2 kytary + bass:
https://www.dropbox.com/s/xmznvpqidfl6nki/Smolik%2CJakub-Hallelujah_pro_2kytary.pdf

 
»
Tvoje obľúbené položky
Tvoje obľúbené položky
»
Nové albumy interpreta
Nové albumy interpreta
CD Smolik Jakub Stastne a vesele vanoce
CD Stastne a vesele
vanoce
3xCD Smolik Jakub 55 hitu - best of /3cd
3xCD 55 hitu - best
of /3cd
KNI Jakub Smolík Jakub smolík - vítám každý nový den cd
KNI Jakub smolík -
vítám každý nový
den cd
CD Smolik Jakub At se zastavi cas
CD At se zastavi
cas
CD Smolik Jakub Chci ti rict...
CD Chci ti rict...
CD Smolik Jakub Rekni, ze je nebe
CD Rekni, ze je
nebe

»
Najnovšie videá
Najnovšie videá

haleluja - jakub smolík

Jakub Smolík-Haleluja

Jakub Smolík - Haleluja

Jakub Smolík - Haleluja ( + text)

Haleluja

Ave Maria - Jakub Smolík a Denisa Markov
»
Najnavštevovanejšie piesne
Najnavštevovanejšie piesne
Haleluja - akordy a text

Říkej mi táto - akordy a text

Haleluja - akordy a text

Jen blázen žárlí - akordy a text

Až se ti jednou bude zdát - akordy a text

ŘÍKEJ MI TÁTO - text

Holka s bílou halenou - akordy

Andělé pláčou - akordy a text

Víš - akordy a text

Haleluja - taby

viac




home | interpreti | register piesní | cd & dvd shop | pripomienky/nápady | kontakt | ochrana údajov | inzercia
Copyright © Pavol Bacigál, 2000-2017. Všetky práva vyhradené.
TOPlist