Pavel Bobek

piesne (61)

  texty (55) / preklady (0)
  akordy (47) / taby (5)
  noty (0) / slideshow (0)

články (55)
fotogaléria
diskusia
videá
diskografia
v obchode
odkazy
koncerty
sťahuj



pridaj vlastný článok

Pavel Bobek:
Zomrel Pavel Bobek :( - Vo veku 76 rokov dnes zomrel český spevák Pavel Bobek. Známy hudobník posledný raz ...


Pavel Bobek:
Nautilus Zdeňka Rytíře (online album) - Hodnotenie: 10 / 10 Pošli na Facebook Pošli na Twitter Pošli na Go... - server.sk


Pavel Bobek:
Vážná nemoc Pavla Bobka: Rozkládá se mu kůže! - 8. února 2013 9:57 Legenda české country Pavel Bobek (75) má v posledních letech v... - super.cz


Pavel Bobek:
Pavel Bobek v Malostranské besedě - PR Podruhé v lednu vás zveme do Malostranské besedy. Ve ... - folktime.cz


Pavel Bobek:
Žlutý pes, Petr Kolář nebo Pavel Bobek zahrají na Slavnostech svijanského
piva
- ireport.cz


Pavel Bobek:
Vyšlo nové album Pavla Bobka – Kruhy - countryworld.cz


Pavel Bobek:
Pavel Bobek: Zpívat lidem mě dělá mladším - novinky.cz


Pavel Bobek:
Pavel Bobek zpívá o smíření se životem - novinky.cz


Pavel Bobek:
Pavel Bobek vydáva tento týždeň nový album Kruhy a chystá sa na veľké
koncerty k 75. narodeninám.
- Na album zaradil coververzie piesní E. Claptona, G. Cladwella, M. Hollidaya, Ch. Corne...


Pavel Bobek:
Pavel Bobek změnil názor a vydá nové album s názvem Kruhy - ceskenoviny.cz


 

Pavel Bobek

Fanúšikov: 3



A B C Č D E F G H CH I J K L Ľ M N O P Q R S Š T U V W X Y Z Ž



ako:
Pavel Bobek - Otec a syn
Pavel Bobek - Otec a syn

tlač

edituj
Rok vzniku: 1970
V originále: Father and Son
Poznámka: Text ani melodie nemá nic společného se stejnojmennou písní skupiny Rangers

Pesničku videlo 2884 návštevníkov.

Kvalita tabov : bez hodnotenia
Hodnotilo ľudí: 0 ohodnoť aj ty
Prispievateľ:

petr554
  *** Autor textu: Yusuf Islam (en) Pavel Vrba (cz) *** Autor hudby: Yusuf Islam
Title: Otec a syn

Tempo = 70
Takt 4/4

Legend
L - tied note
x - dead note
h - hammer on/pull off
b - bend
s - slide
~ - vibrato
g - ghost note
> - accentuated note
t - trill
M - palm mute
. - staccato
P - popping (bass)
S - slapping (bass)
+ - tapping
W - wide vibrato
< - fade in
w - whammy bar
= - tremolo picking
v - brush up
^ - brush down
V - pick stroke up
n - pick stroke down


E ||-3-----------3--------------3--------5------------||
B ||-0--------0-----1---------------------------------||
G ||o------0-----------------4--------5--------------o||
D ||o---------------2--------------------------0-----o||
A ||--------------------------------------------------||
E ||-3--------3--3------------------------------------||


--3-----------3-------------------------------------|
--0--------0-----1L-------1-----------0-----1-------|
--------0-------------------------------------------|
-----------------2L-------2-------------------------|
----------------------------------------------------|
--3-------------------------------------------------|


----------------------------------------------------|
--3--------0--1--0--3-----3-----------0-----1-------|
--------------------------2-------------------------|
----------------------------------------------------|
----------------------------------------------------|
--3--------3--------------2-----------2-------------|


-----------------------0----------------------------|
--3-----------3--3--3-------------------------------|
--------------------------------0-----0-----2-------|
-----------------2----------------------------------|
--3-----------------3--0--------3-----0-----3-------|
--------------0-------------------------------------|


----------------------------|
--0-----------0-----1--0----|
--------0--2----------------|
-----0----------------------|
--------2--3-----2-----2----|
--3-----------0-----0-------|


-----------------------2----------------------------|
--0--------1--------------------3-----0-----1-------|
--------2--------0-----2----------------------------|
--------------------------0-------------------------|
--0-----------0-------------------------------------|
----------------------------------------------------|


----------------------------------------------------|
--3-----------0--1-----3--3-----------0-----1-------|
--------------------------2-------------------------|
----------------------------------------------------|
----------------------------------------------------|
--3-----------3-----------2-----------2-------------|


-----------------------0----------------------------|
--3-----------3--3--3-------------------------------|
--------------------------------0-----0-----2-------|
-----------------2----------------------------------|
--3-----------------3--0--------3-----0-----3-------|
--------------0-------------------------------------|


----------------------------------------------------|
--0-----------------------0-----------1--0----------|
--------------------0--2----------------------------|
----------------------------------------------------|
--------------------2-------------------------------|
--3-----------------------0-----------0-------------|


-----------3--0--3--2-----3--2--0-------------------||
-----------------------------------3--0-----1-------||
--0--2----------------------------------------------||
----------------------------------------------------||
--0-------------------------------------------------||
----------------------------------------------------||


---------------------------------------------------|
-3--------1--0--1-----3-----------------3-----3----|
o---------------------2-----------------2-----2----|
o------0-----------0-----0L----------0-----0-------|
---------------------------------------------------|
-3-----------3--------2-----------------2-----2----|


--------------------------0-------------------------|
--3-----3-----3-----3--------------------------0----|
--------0-----------0-----------0-----0--2----------|
--------0-----------0-------------------------------|
--3-----------3-----------0-----3-----0-----3-------|
----------------------------------------------------|


----------------------------|
--0-----------0-----1--0----|
--------0--2----------------|
-----0----------------------|
--------2--3-----2-----2----|
--3-----------0-----0-------|


-----------------------2---------------------------||
--0-----1-----------1-----------3-----0-----1------||
-----2-----2-----0-----2--------------------------o||
--------------------------0-----------------------o||
--0-----------0------------------------------------||
---------------------------------------------------||


-----------------------------------------------------2----------|
--0-----------------------0--0--------1-----0-------------------|
-----------2--0-----2-----------------------------2--2----------|
--------0-----------------------------------------------0-------|
--------------2-----3-----------2-----------2-------------------|
--3-----------------------0-----------0-----------2-------------|


--------------3--------------3--------5-------------|
-----------0-----1----------------------------------|
--0-----0-----------------4--------5----------------|
-----------------2--------------------------0-------|
----------------------------------------------------|
--3-------------------------------------------------|


--3-----------3-------------------------------------|
-----------0-----1L-------1-----------0-----1-------|
--------0-------------------------------------------|
-----------------2L-------2-------------------------|
----------------------------------------------------|
--3-------------------------------------------------|


--------------0-------------------------------------|
--3--------3--------3-----------------0--------1----|
--------0-----------2-----------------------0-------|
--------------------------------0-------------------|
----------------------------------------------------|
--3-----------------2-----------------2-------------|


-----------------------0----------------------------|
--3-----3-----3-----3-------------------------------|
--------0-----------0--------0--------0-----2-------|
--------0-----------0-------------------------------|
--3-----------3--------0-----3--------0-----3-------|
----------------------------------------------------|


----------------------------|
--0-----------0-----1--0----|
--------0--2----------------|
-----0----------------------|
--------2--3-----2-----2----|
--3-----------0-----0-------|


--------3--0--3--2-----3--2--0----------------------|
--------------------------------3--------0--1-------|
--2-------------------------------------------------|
----------------------------------------------------|
--0-------------------------------------------------|
----------------------------------------------------|


----------------------------------------------------|
--3-----------0--1-----3--3-----------------0--1----|
-----------0--------------2-------------------------|
--------0-------------------------------------------|
----------------------------------------------------|
--3-----------------------2-------------------------|


--------------0-------------|
--3-----3--3----------------|
--------0--------0--0--2----|
--------0-------------------|
--3--------3--0--3--0--3----|
----------------------------|


----------------------------------------------------|
--0L----------0-----------0-----------1--0----------|
--------------------0--2----------------------------|
----------------------------------------------------|
--------------------2-------------------------------|
--3-----------------------0-----------0-------------|


----------------------------------------------------|
--0-----------------------------------------0-------|
-----------2--0-----------0-------------------------|
-----------------------0----------------------------|
--2-------------------------------------------------|
----------------------------------------------------|


--------------------------------3L----------3-------||
--3-----------3s-1-----1-----0--0-------------------||
--------------------------------0-------------------||
--0-------------------------------------------------||
----------------------------------------------------||
--------------------------------3L----------3-------||

v pdf
verze pro 1 kytaru:
https://www.dropbox.com/s/15napa0dr8nhj9f/
Bobek%2CPavel_Otec%20a%20syn.pdf

verze pro 2 kytary:
https://www.dropbox.com/s/smizgn83bw397yl/
Bobek%2CPavel%20-%20Otec%20a%20syn%20pro%202%20kytary.pdf

 
»
Tvoje obľúbené položky
Tvoje obľúbené položky
»
Nové albumy interpreta
Nové albumy interpreta
6
8xCD Bobek Pavel Elpicka 1975-1993 box
8xCD Elpicka
1975-1993 box
5xCD Gott Karel Duety
5xCD Duety
2xCD Bobek Pavel Pratele
2xCD Pratele
2xCD Bobek Pavel V lucerne/dvd
2xCD V lucerne/dvd
2xCD Bobek Pavel Vsem, divkam../2cd
2xCD Vsem,
divkam../2cd
2xCD Bobek Pavel Kruhy rozsirena edice
2xCD Kruhy rozsirena
edice

»
Najnovšie videá
Najnovšie videá

RANGERS OTEC A SYN

Marie Rottrova

Marie Rottrova

Pavel Bobek, Daydream

Pavel Bobek, Tenterfield Saddler

Tam v dlce, tam v horch / P. Bobek.
»
Najnavštevovanejšie piesne
Najnavštevovanejšie piesne
Veď mě dál, cesto má - akordy a text

Lásko, mě ubývá sil - akordy a text

Můj rodný dům - akordy a text

Drž se zpátky, chlapče můj - akordy a text

S tím bláznem si nic nezačínej - akordy a text

Víc nehledám - akordy a text

Dokud budu žít - akordy a text

Veď mě dál cesto má (fingerstyle ver) - taby

A tak to půjde dál - akordy

Ruby, nechtěj mi lásku brát - akordy a text

Country boy 2 - akordy a text

Veď mě dál cesto má (simple ver) - taby

Vincent van Gogh - taby

Pojď dál a zpívej - akordy a text

Nedělní ráno - akordy a text

Dálniční hlídka - akordy a text

Vincent - akordy a text

Obludárium - akordy a text

Já ti zpívám - akordy a text

Má Dívka N. - akordy a text

viac




home | interpreti | register piesní | cd & dvd shop | pripomienky/nápady | kontakt | ochrana údajov | inzercia

TOPlist