Pavel Bobek

piesne (61)

  texty (55) / preklady (0)
  akordy (47) / taby (5)
  noty (0) / slideshow (0)

články (55)
fotogaléria
diskusia
videá
diskografia
v obchode
odkazy
koncerty
sťahuj



pridaj vlastný článok

Pavel Bobek:
Zomrel Pavel Bobek :( - Vo veku 76 rokov dnes zomrel český spevák Pavel Bobek. Známy hudobník posledný raz vydých...


Pavel Bobek:
Nautilus Zdeňka Rytíře (online album) - Hodnotenie: 10 / 10 Pošli na Facebook Pošli na Twitter Pošli na Googl... - server.sk


Pavel Bobek:
Vážná nemoc Pavla Bobka: Rozkládá se mu kůže! - 8. února 2013 9:57 Legenda české country Pavel Bobek (75) má v posledních letech víc st... - super.cz


Pavel Bobek:
Pavel Bobek v Malostranské besedě - PR Podruhé v lednu vás zveme do Malostranské besedy. Ve stř... - folktime.cz


Pavel Bobek:
Žlutý pes, Petr Kolář nebo Pavel Bobek zahrají na Slavnostech svijanského piva - ireport.cz


Pavel Bobek:
Vyšlo nové album Pavla Bobka – Kruhy - countryworld.cz


Pavel Bobek:
Pavel Bobek: Zpívat lidem mě dělá mladším - novinky.cz


Pavel Bobek:
Pavel Bobek zpívá o smíření se životem - novinky.cz


Pavel Bobek:
Pavel Bobek vydáva tento týždeň nový album Kruhy a chystá sa na veľké koncerty k
75. narodeninám.
- Na album zaradil coververzie piesní E. Claptona, G. Cladwella, M. Hollidaya, Ch. Cornel...


Pavel Bobek:
Pavel Bobek změnil názor a vydá nové album s názvem Kruhy - ceskenoviny.cz


 

Pavel Bobek

Fanúšikov: 3



A B C Č D E F G H CH I J K L Ľ M N O P Q R S Š T U V W X Y Z Ž



ako:
Pavel Bobek - Dálniční hlídka
Pavel Bobek - Dálniční hlídka

tlač

edituj
Rok vzniku: 1990
V originále: Highway Patrolman
Pesničku videlo 2950 návštevníkov.

Kvalita tabov : bez hodnotenia
Hodnotilo ľudí: 0 ohodnoť aj ty
Prispievateľ:

petr554
  *** Autor textu: Bruce Springsteen (en) Pavel Vrba (cz) *** Autor hudby: Bruce Springsteen
Title: Dálniční hlídka
Copyright: (p) 1990 SUPRAPHON

Tempo = 115
Steel Gtr

Legend
L - tied note
x - dead note
h - hammer on/pull off
b - bend
s - slide
~ - vibrato
g - ghost note
> - accentuated note
t - trill
M - palm mute
. - staccato
P - popping (bass)
S - slapping (bass)
+ - tapping
W - wide vibrato
< - fade in
w - whammy bar
= - tremolo picking
v - brush up
^ - brush down
V - pick stroke up
n - pick stroke down


E |-----------2-----------2----|-----------2-----------2----|
B |--------3-----3-------------|--------3-----3-------------|
G |-----2-----------2--2-------|-----2-----------2--2-------|
D |--0-------------------------|--0-------------------------|
A |----------------------------|----------------------------|
E |----------------------------|----------------------------|


-----------2----------------|-----------2----------------|
--------3-----3-------------|--------3-----3-------------|
-----2-----------2-----2----|-----2-----------2-----2----|
--0-----------------0-------|--0-----------------0-------|
----------------------------|----------------------------|
----------------------------|----------------------------|


----------------------------|-----------2----------------|
--------0-----0-------------|--------3-----3-------------|
-----------0-----0-----0----|-----2-----------2-----2----|
-----0--------------0-------|--0-----------------0-------|
----------------------------|----------------------------|
--3-------------------------|----------------------------|


-----------2----------------|-----------2----------------|
--------3-----3-------------|--------3-----3-------------|
-----2-----------2-----2----|-----2-----------2-----2----|
--0-----------------0-------|--0-----------------0-------|
----------------------------|----------------------------|
----------------------------|----------------------------|


-----------2----------------|----------------------------|
--------3-----3-------------|-----------2----------------|
-----2-----------2-----2----|--------4-----4-------------|
--0-----------------0-------|-----2-----------2-----2----|
----------------------------|--0-----------------0-------|
----------------------------|----------------------------|


-----------2----------------|-----------2----------------|
--------3-----3-------------|--------3-----3-------------|
-----2-----------2-----2----|-----2-----------2-----2----|
--0-----------------0-------|--0-----------------0-------|
----------------------------|----------------------------|
----------------------------|----------------------------|


----------------------------|-----------2-----------2----|
--------0-----0-------------|--------3-----3-------------|
-----------0-----0-----0----|-----2-----------2--2-------|
-----0--------------0-------|--0-------------------------|
----------------------------|----------------------------|
--3-------------------------|----------------------------|


-----------2----------------|----------------------------|
--------3-----3-------------|-----------2-----------2----|
-----2-----------2-----2----|--------4-----------4-------|
--0-----------------0-------|-----2-----------2----------|
----------------------------|--0-----------0-------------|
----------------------------|----------------------------|


-----------2-----------2----|-----2-----------2----------|
--------3-----3-------------|--------3-----------3-------|
-----2-----------2----------|--2-----------2--------2----|
--0-----------------0-------|-----------0----------------|
----------------------------|----------------------------|
----------------------------|----------------------------|


-----------3----------------|-----------2-----------2----|
--------0-----0-------------|--------3-----3-------------|
-----0-----------0-----0----|-----2-----------2----------|
--------------------0-------|--0-------------------------|
----------------------------|--------------------0-------|
--3-------------------------|----------------------------|


-----------3----------------|--------2-------------------|
--------0-----0-------------|-----------3----------------|
-----0-----------0-----0----|-----2-----------2-----2----|
--------------------0-------|--0-----------0-------------|
----------------------------|--------------------0-------|
--3-------------------------|----------------------------|


-----------3----------------|-----------2----------------|
--------0-----0-------------|--------3-----3-------------|
-----0-----------0-----0----|-----2-----------2-----2----|
--------------------0-------|--0-----------------0-------|
----------------------------|----------------------------|
--3-------------------------|----------------------------|


-----------2----------------|----------------------------|
--------3-----3-------------|-----------2-----------2----|
-----2-----------2-----2----|--------4-----4-------------|
--0-----------------0-------|-----2-----------2----------|
----------------------------|--0-----------------0-------|
----------------------------|----------------------------|


-----------2----------------|-----------2----------------|
--------3-----3-------------|--------3-----3-------------|
-----2-----------2-----2----|-----2-----------2-----2----|
--0-----------------0-------|--0-----------------0-------|
----------------------------|----------------------------|
----------------------------|----------------------------|


-----------3----------------|-----------2----------------|
--------0-----0-------------|--------3-----3-------------|
-----0-----------0-----0----|-----2-----------2-----2----|
--------------------0-------|--0-----------------0-------|
----------------------------|----------------------------|
--3-------------------------|----------------------------|


----------------------------|----------------------------|
--------3-----3-------------|-----------2-----------2----|
-----2-----2-----2-----2----|--------4-----------4-------|
--0-----------------0-------|-----2-----------2----------|
----------------------------|--0-----------0-------------|
----------------------------|----------------------------|


-----------2-----------2----|-----2-----------2----------|
--------3-----3-------------|--------3-----------3-------|
-----2-----------2----------|--2-----------2--------2----|
--0-----------------0-------|-----------0----------------|
----------------------------|----------------------------|
----------------------------|----------------------------|


-----------3----------------|----------------------------|
--------0-----0-------------|-----------3-----------3----|
-----0-----------0-----0----|--------2-----2-----2-------|
--------------------0-------|-----2-----------2----------|
----------------------------|--0-------------------------|
--3-------------------------|----------------------------|


-----------2-----------2----|-----------2----------------|
--------3-----3-------------|--------3-----3-------------|
-----2-----------2----------|-----2-----------2-----2----|
--0-----------------0-------|--0-----------------0-------|
----------------------------|----------------------------|
----------------------------|----------------------------|


-----------2-----------2----|-----------2-----0----------|
--------3-----3-------------|--------3-----------3-------|
-----2-----------2----------|-----2-----------------2----|
--0-----------------0-------|--0-----------0-------------|
----------------------------|----------------------------|
----------------------------|----------------------------|


-----------0----------------|-----------3----------------|
--------3-----3-------------|--------0-----0-------------|
-----2-----------2-----2----|-----2-----------2-----2----|
--0-----------------0-------|--------------------0-------|
----------------------------|----------------------------|
----------------------------|--3-------------------------|


----------------------------|-----------3----------------|
--------3-----3-------------|--------0-----0-------------|
-----2-----2-----2-----2----|-----0-----------0-----0----|
--0-----------------0-------|--------------------0-------|
----------------------------|----------------------------|
----------------------------|--3-------------------------|


----------------------------|-----------3----------------|-------||
--------3-----3-------------|--------0-----0-------------|-------||
-----2-----2-----2-----2----|-----0-----------0-----0----|-------||
--0-----------------0-------|--------------------0-------|--0----||
----------------------------|----------------------------|-------||
----------------------------|--3-------------------------|-------||

 
»
Tvoje obľúbené položky
Tvoje obľúbené položky
»
Nové albumy interpreta
Nové albumy interpreta
8xCD Bobek Pavel Elpicka 1975-1993 box
8xCD Elpicka
1975-1993 box
5xCD Gott Karel Duety
5xCD Duety
2xCD Bobek Pavel Pratele
2xCD Pratele
2xCD Bobek Pavel V lucerne/dvd
2xCD V lucerne/dvd
2xCD Bobek Pavel Vsem, divkam../2cd
2xCD Vsem,
divkam../2cd
2xCD Bobek Pavel Kruhy rozsirena edice
2xCD Kruhy rozsirena
edice

»
Najnovšie videá
Najnovšie videá

Dálniční hlídka / P. Bobek.

Pavel Bobek - Dálniční hlídka / smlk

Pavel Bobek (Live) "Dálniční hlídka" - 3

Dálniční hlídka - Pavel Bobek live 11.9.

Pavel Bobek - Dálniční hlidka

Zahrada 2009 - Pavel Bobek
»
Najnavštevovanejšie piesne
Najnavštevovanejšie piesne



home | interpreti | register piesní | cd & dvd shop | pripomienky/nápady | kontakt | ochrana údajov | inzercia
Copyright © Pavol Bacigál, 2000-2017. Všetky práva vyhradené.
TOPlist