Filmová Hudba Cz

piesne (376)

  texty (323) / preklady (3)
  akordy (229) / taby (15)
  noty (8) / slideshow (0)

články (99)
fotogaléria
diskusia
videá
diskografia
v obchode
odkazy
koncerty
sťahuj



pridaj vlastný článok

Filmová Hudba Cz:
stáhnutí mp3 Olda Rypar Sun - Ahoj.Tu mp3 najdeš na stránkách moje mp3,je tam jednoduchá registrace,akorát je nutn...


Film:
Soundtrack k filmu Mamma Mia Má nomináciu Grammy! - SOUNDTRACK K FILMU MAMMA MIA MÁ NOMINÁCIU GRAMMY! Soundtrack k filmu MAMMA MIA! bol...


Filmová Hudba Cz:
Tomáš Klus připravuje hudbu k filmu Anglické Jahody - TOMÁŠ KLUS připravuje hudbu k filmu ANGLICKÉ JAHODY 23. 8. ve 14.35 na ČT1 : F... - sony bmg


Filmová Hudba Cz:
Vypočujte si vynikajúce CD: "Movie and Fairy Tale Melodies"


Filmová Hudba Cz:
CD Kolekce hitů z českých filmů skladom!


Druhá Tráva:
Soundrack k filmu PUSINKY - Nastupující česká hudební generace na soundtracku navazujícím v tom nejlepš... - sony bmg


Lucie Bílá:
Various – TV Hity z TV seriálov a filmov - server.sk


Filmová Hudba Cz:
Když soundtrack dělá prachy - musicserver.cz


Filmová Hudba Cz:
Nové 2CD s filmovymi hitmi


Lenka Dusilová:
Soundtrack - Všechno nejlepší - musiczone.cz


 

Filmová Hudba Cz

Fanúšikov: 8



A B C Č D E F G H CH I J K L Ľ M N O P Q R S Š T U V W X Y Z Ž



ako:
Filmová Hudba Cz - Lásko má ja stůňu (Noc na Karlštejn
Filmová Hudba Cz - Lásko má ja stůňu (Noc na Karlštejn

tlač

edituj
Pesničku videlo 4179 návštevníkov.

Kvalita tabov : bez hodnotenia
Hodnotilo ľudí: 0 ohodnoť aj ty
Prispievateľ:

petr554
  *** Autor textu: L.Štaidl *** Autor hudby: K.Svoboda
takt: 4/4

Legend
L - tied note
x - dead note
h - hammer on/pull off
b - bend
s - slide
~ - vibrato
g - ghost note
> - accentuated note
t - trill
M - palm mute
. - staccato
P - popping (bass)
S - slapping (bass)
+ - tapping
W - wide vibrato
< - fade in
w - whammy bar
= - tremolo picking
v - brush up
^ - brush down
V - pick stroke up
n - pick stroke down


E |----------------|--------------------0-----0-------------------------|
B |-----1--0-------|-----------------------3----------------------------|
G |--2--------2----|--0-------------------------------------------------|
D |----------------|--2-------------------------------------------------|
A |--0-------------|----------------------------------------------------|
E |----------------|----------------------------------------------------|


----------------|--------------------0-----0L----------0-------------|
-----1--0-------|-----------------------3----------------------------|
--2--------2----|--0-------------------------------------------------|
--0-------------|--2-------------------------------------------------|
----------------|----------------------------------------------------|
----------------|----------------------------------------------------|


--------0-----------0-------|--------0-----------0-------|
-----1-----1-----1-----1----|-----0-----0-----0-----0----|
--2-----------2-------------|--0-----------0-------------|
----------------------------|----------------------------|
----------------------------|----------------------------|
----------------------------|----------------------------|


--------2-----------0-------|--------0-----------0L-0----|
-----3-----3-----0-----0----|-----1-----1-----1----------|
--2-----------1-------------|--2-----------2-------------|
----------------------------|----------------------------|
----------------------------|----------------------------|
----------------------------|-----------------------0----|


--------0-----------0-------|--------0-----------0-------|
--------1-----------1-------|--------0-----------0-------|
-----2-----2-----2-----2----|-----0-----0-----0-----0----|
----------------------------|--------------2-------------|
--0L-0--------0L-0----------|----------------------------|
----------------------------|--0-------------------------|


--------2-----------0-------|--------1-----0-----3-------|
--------3-----------0-------|--------1-----1-----0-------|
-----2-----2-----1-----1----|-----2-----2-----0-----0----|
--0-------------------------|----------------------------|
----------------------------|----------------------------|
--------------0-------------|--1-----------3L-3--3L-3----|


--------0-----------0-------|--------3-----------3-------|
--------1-----------1-------|--------0-----------0-------|
-----0-----0-----0-----0----|-----0-----0-----0-----0----|
----------------------------|----------------------------|
--3L-3--------3L-3----------|----------------------------|
----------------------------|--3-----------3-------------|


--------1-----------1-------|--------0-----------0-------|
--------3-----------3-------|--------1-----------1-------|
-----2-----2-----2-----2----|-----2-----2-----2-----2----|
--0-----------0-------------|----------------------------|
----------------------------|--0-----------0-------------|
----------------------------|----------------------------|


--------0-----------0-------|--------1-----------1-------|
--------1-----------1-------|--------1-----------1-------|
-----3-----3-----3-----3----|-----2-----2-----2-----2----|
----------------------------|----------------------------|
--3-----------3-------------|----------------------------|
----------------------------|--1-----------1-------------|


--------0-----------3-------|--------0-----0-----0-------|
--------1-----------0-------|--------0-----0-----0-------|
-----0-----0-----0-----0----|-----1-----1-----1-----1----|
----------------------------|----------------------------|
--3-------------------------|----------------------------|
--------------3-------------|--0-------------------------|


--0-----0-----0-----0-------|--0-----0-----0-----0L-0----|
--0-----0-----0-----0-------|--0-----0-----0-----0L-0----|
-----1-----1-----1-----1----|-----1-----1-----1----------|
----------------------------|----------------------------|
----------------------------|----------------------------|
--0-------------------------|--0--------------------0----|


--------0-----0-----3-------|--------0-------------------||
--------1-----1-----0-------|--------1-------------------||
-----0-----0-----0-----0----|-----0-----0----------------||
----------------------------|----------------------------||
--3-------------------------|--3-----------3-------------||
--------------3-----3-------|----------------------------||

tab v pdf:
https://www.dropbox.com/s/duuuq1y6s4wmupi/Lasko_ma_ja_stunu.pdf

 
»
Tvoje obľúbené položky
Tvoje obľúbené položky

»
Najnovšie videá
Najnovšie videá

Noc na Karltejn (nejlep psniky)

Helena Vondrkov : Lsko m j stnu /

Koncert 2/4 - Noc na Karltejn: Lsko m

LSKO M, J STU (fltnov soubor Z S

Lsko m j stu- Noc na Karltejn

Tk ivot Pna asu
»
Najnavštevovanejšie piesne
Najnavštevovanejšie piesne
Kdy začnu žít - z filmu Na Vlásku - akordy a text

Falling Slowly (Once) - akordy a text

Slunečný hrob - akordy a text

Tu kytaru jsem koupil kvůli tobě - akordy a text

Lásko má, já stůňu - akordy a text

Hádej - Z Pohádky Dvanáct Měsíčků - akordy a text

Můj čas (zo seriálu Sanitka) - akordy a text

Buchet je spousta - Kouzla králů - akordy a text

Sladké mámení (S tebou mě baví svět) - akordy a text

Arabela - akordy a text

Krůček po krůčku - akordy a text

Znám jednu starou zahradu (Šíleně smutná princezna) - akordy a text

Lucky Boy (z filmu Samotáři) - akordy a text

A pohádky je konec (z pohádky Nesmrtelná teta) - akordy a text

Holka nebo kluk (Tajemství staré bambitky) - akordy a text

Včelka Mája - akordy a text

Princezna ze mlejna - akordy a text

Kdepak ty ptáčku hnízdo máš (Tři oříšky pro Popelku) - akordy a text

Básnířka (z filmu Rok Ďábla) - akordy a text

Ani k stáru (z filmu Vratné lahve) - akordy a text

viac




home | interpreti | register piesní | cd & dvd shop | pripomienky/nápady | kontakt | ochrana údajov | inzercia

TOPlist