Jelen

piesne (25)

  texty (12) / preklady (0)
  akordy (23) / taby (0)
  noty (0) / slideshow (0)

články (0)
fotogaléria
diskusia
videá
diskografia
v obchode
odkazy
koncerty
sťahuj



pridaj vlastný článok

Jelen:
Jelen - Jsme spíš hudební hnutí než kapela - Vydáno: 27.10.2016 08:00 v sekci Rozhovory - Karolína Stránská Od vydání debutu "Světlo ... - musicserver.cz


Jelen:
Jelen interview: Hudba je magie v praxi, naše nová deska je o koncích a nových
začátcích
- Vydáno včera | autor: Josef Martínek Svou druhou řadovou desku Vlčí srdce vydává s... - ireport.cz


Holešovská Regata:
Holešovská regata viděla domácí špičku: přijeli Kryštof, Aneta Langerová, No
Name i Jelen
- Vydáno před 15 hodinami Facebook9 Twitter0 Google+0 Už 6. ročník Holešovské regaty ... - ireport.cz


Jelen:
Jelen vydá v říjnu album a pojede na turné - Pražská skupina Jelen informovala, že její druhá studiová deska vyjde 7. října. Poté vyra...


Jelen:
Skupina Jelen obdržela Zlatou desku - Skupina Jelen si ve čtvrtek odpoledne převzala od vydavatelství Universal Music Zlatou de... - novinky.cz


Jelen:
Jelen a Jana Kirschner natočili společnou píseň. Kapela se pochlubila fanouškům - Jelen a Jana Kirschner natočili společnou píseň. Kapela se pochlubila fanouškům Vydáno... - musicserver.cz


Michal Hrůza:
Michal Hrůza, Kittchen i Jelen budou hrát až Na dřeň - /**/ více tisc... - IREPORT


 

Jelen

Fanúšikov: 7



A B C Č D E F G H CH I J K L Ľ M N O P Q R S Š T U V W X Y Z Ž



ako:
Jelen - Neumírám
Jelen - Neumírám

tlač

edituj

export
agama

export
txt
Poznámka: Připomínky: septikb@seznam.cz

Pesničku videlo 4628 návštevníkov.

Kvalita akordov : bez hodnotenia
Hodnotilo ľudí: 0 ohodnoť aj ty
Prispievateľ:

septik
Transpozícia:   [+1 +2 -1 -2]

// Riff - intro:
D
E |-----------------|-----------------|-----------------|-----------------|
H |-----------------|-----------------|-----------------|-----------------|
G |-----------------|-----------------|-----------------|-4---------------|
D |-----4---5---7---|-----4---7---5---|-----4---5---7---|-----7---5---4---|
A |---5---5---5---5-|---5---5---5---5-|---5---5---5---5-|---5---5---5---5-|
D |-0---------------|-0---------------|-0---------------|-----------------|

D
E |-----------------|-----------------|-----------------|-----------------|
H |-----------------|-----------------|-----------------|-----------------|
G |-----------------|-----------------|-----------------|-4-------4---7---|
D |-----4---5---7---|-----4---7---5---|-----4---5---7---|-----7-----------|
A |---5---5---5---5-|---5---5---5---5-|---5---5---5---5-|---5---5---5---5-|
D |-0---------------|-0---------------|-0---------------|-----------------|

// Sloka:
D C D/H
E |-----------------|-----------------|-----------------|-----------------|
H |-----------------|-----------------|-----------------|-----------------|
G |-----------------|-----------------|---------0---2---|-----0---2---0---|
D |-----4---5---7---|-----4---7---5---|---0-4-0---0---0-|---0---0---0---0-|
A |---5---5---5---5-|---5---5---5---5-|-3---------------|-2---------------|
D |-0---------------|-0---------------|-----------------|-----------------|

// Refrén:
F G D
E |-1---------------|-3---------------|-----------------|-----------------|
H |-1---------------|-3---------------|-----------------|-----------------|
G |-2---------------|-4---------------|-----------------|-4---------------|
D |-----------------|-----------------|-----4---5---7---|-----7---5---4---|
A |-----------------|-----------------|---5---5---5---5-|---5---5---5---5-|
D |-3---------------|-5---------------|-0---------------|-----------------|

F G D
E |-1---------------|-3---------------|-----------------|-----------------|
H |-1---------------|-3---------------|-----------------|-----------------|
G |-2---------------|-4---------------|-----------------|-4-------4---7---|
D |-----------------|-----------------|-----4---5---7---|-----7-----------|
A |-----------------|-----------------|---5---5---5---5-|---5---5---5---5-|
D |-3---------------|-5---------------|-0---------------|-----------------|

// Riff - mezihra
D F E
E |-----10-10---------------|-----10-10---------1---0-|
H |-----10-10-----3---6-5-3-|-----10-10-----3---1---0-|
G |-----11-11-----2---5-4-2-|-----11-11-----2---------|
D |-------------------------|-------------------------|
A |-------------------------|-------------------------|
D |-0-----------------------|-0---------------3---2---|

D F G D
E |-----10-10---------------|---------1---------3-----|
H |-----10-10-----3---6-5-3-|---3-3-3-1---------3---3-|
G |-----11-11-----2---5-4-2-|---2-2-2-2---------4---2-|
D |-------------------------|-------------------------|
A |-------------------------|-------------------------|
D |-0-----------------------|-0-------3---------5---0-|


DLásko nech mně chvíli
Cnech mně ještě chvíli D/Hspát
Dlásko nech mně chvíli
Cnech ještě chvíli D/Hspát.

FZítra mně lásko G nebudeš znát D
Fzítra mně lásko G nebudeš znát D

Až večer zase přijdou
na dveře zaklepou
až večer zase přijdou
na dveře zaklepou

Nic jim neříkej o nás dvou.
Nic jim neříkej

(mezihra) D, F, E, D, F, G, D

Lásko nech mně chvíli
ležet jen tak po tmě sám
lásko nech mně chvíli
ležet jen tak po tmě sám

Neboj se lásko neumírám
já zas tak snadno neumírám.

(mezihra) D, F, E, D, F, G, D

 
»
Tvoje obľúbené položky
Tvoje obľúbené položky
»
Nové albumy interpreta
Nové albumy interpreta
CD Jelen Vlci srdce
CD Vlci srdce
VINYL Jelen Svetlo ve tme [vinyl]
VINYL Svetlo ve tme
[vinyl]
KS Jelen Placka vlci srdce
KS Placka vlci
srdce
TRI Jelen Jelen/skinny/white/ladies/medium
TRI Jelen/skinny/whi
te/ladies/medium
TRI Jelen Jelen/skinny/black/ladies/medium
TRI Jelen/skinny/bla
ck/ladies/medium
KS Jelen Placka jelen original
KS Placka jelen
original

»
Najnovšie videá
Najnovšie videá

JELEN | Neumírám | New Album Teaser

Jelen

Jelen - Jelen (Official Music Video)

Jelen, Jana Kirschner - Co bylo dál? (Ly

Jelen - Světlo ve tmě (Official Audio)

Jelen - Magdaléna
»
Akordové schémy
Akordové schémy
»
Najnavštevovanejšie piesne
Najnavštevovanejšie piesne
Vlčí Srdce - akordy

Co Bylo Dál? - akordy a text

Klidná Jako Voda - akordy

Magdaléna - akordy a text

Jelen - akordy a text

Světlo Ve Tmě - akordy a text

A Co Bylo Dál - akordy

Magdaléna - akordy

Slunovrat - akordy

Jelen – Oprava - akordy a text

viac




home | interpreti | register piesní | cd & dvd shop | pripomienky/nápady | kontakt | ochrana údajov | inzercia
Copyright © Pavol Bacigál, 2000-2017. Všetky práva vyhradené.
TOPlist