The Script

piesne (64)

  texty (42) / preklady (17)
  akordy (9) / taby (0)
  noty (0) / slideshow (0)

články (9)
fotogaléria
diskusia
videá
diskografia
v obchode
odkazy
koncerty
sťahuj



pridaj vlastný článok

Beady Eye:
Beyonce: Na Virgin Media V Festival - Beyonce Knowles a Kings of Leon budú hlavnými headlinermi na tohtoročnom festivale Virgin... - bang


The Script:
The Script po prvý raz ovládli britský singlový rebríček - Na vrchol britského singlového rebríčka sa dostala skladba Hall Of Fame od írskej pop-ro...


The Script:
The Script sa vrátili na jednotku v albumovom rebríčku - The Script sa vrátili na jednotku v albumovom rebríčku Na dvojke v UK Charte debutuje an...


The Script:
Nové album vychází 11. října a obsahuje první singl „For The First Time“ - Nové album vychází 11. října a obsahuje první singl „For The First Time“ Tři kluci z ...


The Script:
The Script - Nové album Science & Faith vychází 11. října a obsahuje první singl
For The First Time
- muzikus.cz


The Script:
The Script ovládli UK Chart aj s druhou štúdiovkou - hudba.sk


Alexandra Burke:
Alexandra Burke opäť na čele singlového rebríčka - Speváčka Alexandra Burke si so skladbou Start Without You udržala prvé miesto v britskom ...


The Script:
The Script položili na lopatky Linkin Park - musicserver.cz


The Script:
Nové album vychází 11. října - Nové album vychází 11. října a obsahuje první singl „For The First Time“ Tři kluci z...


The Script:
The Script staronovou jednotkou albumového UK Chartu - The Script staronovou jednotkou albumového UK Chartu Staronovou jednotkou britského re...


 

The Script

Fanúšikov: 5



A B C Č D E F G H CH I J K L Ľ M N O P Q R S Š T U V W X Y Z Ž



ako:
The Script - Superheroes
The Script - Superheroes

tlač

edituj

export
agama

export
txt
Rok vzniku: 2014
Pesničku videlo 1500 návštevníkov.

Kvalita akordov : bez hodnotenia
Hodnotilo ľudí: 0 ohodnoť aj ty
Prispievateľ:

mravecek
Transpozícia:   [+1 +2 -1 -2]   *** Autor textu: The Script *** Autor hudby: The Script
The Script - Superheroes
Capo 1st Fret
Intro:
G - D - Bmi - A
G - D - Asus4 - A

Verse 1:
G D Bm A
All the life she has seen, All the meaner side of me
G D
They took away from the prophet's dream
Asus4 A
For A Profit on The Street

Pre-Chorus:
D/F# G
Now she's stronger than you know
A
A heart of steel starts to grow

Verse 2:
G D Bm A
All his life, he's been told, He'll be nothing when he's old
G D
All the kicks and all the blows
Bm A
He will never let it show

Pre-Chorus
D/F# G
Cause he's stronger than you know
A
A heart of steel starts to grow

Chorus:
G D
When you've been fighting for it all your life
Bm A
You've been struggling to make things right
G D
That's how a superhero learns to fly
A
Every day, every hour turn the pain into power
G D
When you've been fighting for it all your life
Bm A
You've been working every day and night
G D
That's how a superhero learns to fly
A
Every day, every hour, turn that pain into power

Interlude:
G - D - Bm - A

Verse 3:
G D Bm A
All the hurt, all the lies, All the tears that they cry
G D
When the moment is just right
Bm A
You'll see the fire in their eyes

Pre-Chorus
D/F# G
Cause they're stronger than you know
A
A heart of steel starts to grow

Chorus:
G D
When you've been fighting for it all your life
Bm A
You've been struggling to make things right
G D
That's how a superhero learns to fly
A
Every day, every hour turn the pain into power
G D
When you've been fighting for it all your life
Bm A
You've been working every day and night
G D
That's how a superhero learns to fly
A
Every day, every hour, turn that pain into power

Interlude:
G - D - Bm - A
G - D - A - A

Bridge 1:
G D
She's got a lions in her heart, a fire in her soul
Bm A
He's got a beast in his belly, that's so hard to control
G D
Cause they've taken too much hits, taking blow by blow
Asus4 A
Now light them up, stand back, watch them explode


Bridge 2:
G/E D/G
She's got a lions in her heart, a fire in her soul
Bm/D A
He's got a beast in his belly, that's so hard to control
D/F# G
Cause they've taken too much hits, taking blow by blow
A
Now light them up, stand back, watch them explode

Interlude:
A - A

Chorus:
G D
When you've been fighting for it all your life
Bm A
You've been struggling to make things right
G D
That's how a superhero learns to fly
A
Every day, every hour turn the pain into power
G D
When you've been fighting for it all your life
Bm A
You've been working every day and night
G D
That's how a superhero learns to fly
A
Every day, every hour, turn that pain into power

Interlude:
G - D - Bm - A
G - D - Asus4 - A

Chorus:
G D
When you've been fighting for it all your life
Bm A
You've been struggling to make things right
G D
That's how a superhero learns to fly

Piano Part
1st Half of Intro
Verse 1
Bridge
G D Bm A
+ 4 + | 1 + 2 + 3 + 4 + | 1 + 2 + 3 + 4 + | 1 + 2 + 3 + 4 + | 1 + 2 + 3 + 4 + |
e|-------|-------------2---|-----------------|-2---------------|-----------------|
B|-------|-3-----------3---|-----------------|-3-----------2---|-----------------|
G|---0-2-|-4-----2-----2---|-----------------|-4-----------2---|-------------0-2-|
D|-------|-0-----------4---|---------------2-|-4-----2-----2---|-----------------|
A|-------|-x-----------5---|-------------5---|-2-----------4---|-----------------|
E|-------|-3---------------|-----------------|-------------5---|-----------------|

G D A
| 1 + 2 + 3 + 4 + | 1 + 2 + 3 + 4 + | 1 + 2 + 3 + 4 + | 1 + 2 + 3 + 4 + |
e|-------------2---|-----------------|-----------------|-----------------|
B|-3-----------3---|-----------------|-2-------------3-|-2---------------|
G|-4-----2-----2---|-----------------|-2---------------|-2---------------|
D|-0-----------4---|-----------------|-2---------------|-2---------------|
A|-x-----------5---|-----------------|-5---------------|-----------------|
E|-3---------------|-----------------|-5---------------|-----------------|


Lead Guitar Part (Not According To Capo)
2nd half of Intro
4th and 8th line of every chorus
2nd and 3rd Interlude

Ab Eb (Eb) Cm Bb (Bb)
1 + 2 + 3 + 4 + | 1 + 2 + 3 + 4 + | 1 + 2 + 3 + 4 + | 1 + 2 + 3 + 4 + |
e|-----8-10-11--11--|-11--11--11-10-8---|-----8-10-11--11--|-11--13--11-10-8---|
B|------------------|-------------------|------------------|-------------------|
G|------------------|-------------------|------------------|-------------------|
D|------------------|-------------------|------------------|-------------------|
A|------------------|-------------------|------------------|-------------------|
E|------------------|-------------------|------------------|-------------------|

Ab Eb (Eb) Bb (Bb)
1 + 2 + 3 + 4 + | 1 + 2 + 3 + 4 + | 1 + 2 + 3 + 4 + | 1 + 2 + 3 + 4 + |
e|-----8-10-11--11--|-11--11--11-10-8---|---------8-10-11--|-------------------|
B|------------------|-------------------|------------------|-------------------|
G|------------------|-------------------|------------------|-------------------|
D|------------------|-------------------|------------------|-------------------|
A|------------------|-------------------|------------------|-------------------|
E|------------------|-------------------|------------------|-------------------|


 
»
Tvoje obľúbené položky
Tvoje obľúbené položky
»
Nové albumy interpreta
Nové albumy interpreta
CD Script The #3
CD #3
CD Script The Scienceandfaith
CD Scienceandfaith

»
Najnovšie videá
Najnovšie videá

The Script - Superheroes (Lyrics)

The Script - Superheroes (Audio)

SUPERHEROES by The Script - A Tribute T

The Script - Superheroes (Vevo Presents:

The Script - Superheroes(Aud io) 10 HOUR

The script: Superheroes Lyrical Video
»
Akordové schémy
Akordové schémy
»
Najnavštevovanejšie piesne
Najnavštevovanejšie piesne



home | interpreti | register piesní | cd & dvd shop | pripomienky/nápady | kontakt | ochrana údajov | inzercia
Copyright © Pavol Bacigál, 2000-2017. Všetky práva vyhradené.
TOPlist