Mash

piesne (19)

  texty (17) / preklady (0)
  akordy (8) / taby (2)
  noty (0) / slideshow (0)

články (2)
fotogaléria
diskusia
videá
diskografia
v obchode
odkazy
koncerty
sťahuj



pridaj vlastný článok




 

Mash

Fanúšikov: 0



A B C Č D E F G H CH I J K L Ľ M N O P Q R S Š T U V W X Y Z Ž



ako:
Mash - Mám rád ty chvíle - sólo
Mash - Mám rád ty chvíle - sólo

tlač

edituj
Pesničku videlo 2104 návštevníkov.

Kvalita tabov : bez hodnotenia
Hodnotilo ľudí: 0 ohodnoť aj ty
Prispievateľ:

Chosse

MASH - Mám rád ty chvíle

15[17]15 - vytažení a uvolnění na 15 pražci o tón
19h20p19xxxxx - opakující se motiv

sólo

e|-12--12-14-15-------15-14-12------------------------------------
h|---12------------12---------15-----15[17]15----12---------------
g|--------------------------------------------12------------------
D|----------------------------------------------------------------
A|----------------------------------------------------------------
E|----------------------------------------------------------------

e|-12--12-14-15----12-14-15-17-15-17-19---17-15-17-19h20p19xxxxxx-
h|---12-----------------------------------------------------------
g|----------------------------------------------------------------
D|----------------------------------------------------------------
A|----------------------------------------------------------------
E|----------------------------------------------------------------

e|-12--12-14-15-------15-14-12------------------------------------
h|---12------------12---------15-----15[17]15----12---------------
g|--------------------------------------------12------------------
D|----------------------------------------------------------------
A|----------------------------------------------------------------
E|----------------------------------------------------------------

e|--------------------15-14-12h14p12------------------------------
h|------12-13----12-13---------------15--13-12-13-15--------------
g|-14-14----------------------------------------------------------
D|----------------------------------------------------------------
A|----------------------------------------------------------------
E|----------------------------------------------------------------

 
»
Tvoje obľúbené položky
Tvoje obľúbené položky
»
Nové albumy interpreta
Nové albumy interpreta
CD Mash Mash -shm-cd/ltd-
CD Mash
-shm-cd/ltd-
CD Mash Ougon no kisetsu
CD Ougon no kisetsu
DVD Masha & De Beer Deel 3
DVD Deel 3
CD Mashrou Leila Raasuk
CD Raasuk
VINYL Masha I Medvedi Solnzeklyosh [vinyl]
VINYL Solnzeklyosh
[vinyl]
DVD Mashayekhi N. Gozaran-time passing
DVD Gozaran-time
passing

»
Najnovšie videá
Najnovšie videá

Mash - Rybářská

Nejdou ty cíle do poslední chvíle.

MASH rock - Kotel (Pekelný Ostrov 2014)

Mash rock- Rider ( official video )

R. A. Dvorský, Melody Boys: Až přijde ta

J.A.R. - Schyzm
»
Najnavštevovanejšie piesne
Najnavštevovanejšie piesne
Rider - taby

Mám rád ty chvíle - sólo - taby

Kotel - akordy a text

Řádky mých snů - akordy a text

Proč Jenom Já - text

Řádky mých snů - text

Chtěla si víc - text

Proč jenom já - akordy a text

Poslední - text

Rybářská - akordy a text

viac




home | interpreti | register piesní | cd & dvd shop | pripomienky/nápady | kontakt | ochrana údajov | inzercia
Copyright © Pavol Bacigál, 2000-2017. Všetky práva vyhradené.
TOPlist