Kabát

piesne (536)

  texty (262) / preklady (0)
  akordy (174) / taby (242)
  noty (0) / slideshow (0)

články (317)
fotogaléria
diskusia
videá
diskografia
v obchode
odkazy
koncerty
sťahuj



pridaj vlastný článok

Kabát:
ROCK POD KAMEŇOM PODPORUJE ČESKO-SLOVENSKÚ ROCKOVÚ SCÉNU - Kompletný line-up nabitý svetovými rockermi s výbornou muzikou uzatvárajú zoskupenia rock... - P.Dráb


Accept:
Report z Metalfest Open Air 2016 v Plzni - Pamatujete na rok 2010, kdy se Metalfest Open Air konal poprvé? Tenkrát byl součástí sé... - rockmag.cz


Kabát:
Kabát prý prodal nejvíce desek, cenu na Andělech ale nevyhraje - Kabát prý prodal nejvíce desek, cenu na Andělech ale nevyhraje Nové desky pro 14. tý... - musicserver.cz


Adele:
Pětadvacátý ročník hudebních cen Anděl zná své výherce - Pětadvacátý ročník hudebních cen Anděl zná své výherce Video: Slza v novém klipu k p... - musicserver.cz


Kabát:
Kabát tvrdí, že je nespravedlivě vyřazen z boje o nejprodávanější album - Skupina Kabát tvrdí, že byla vyřazena z boje o nejprodávanější album loňského roku. Stalo... - novinky.cz


Kabát:
Kabát vyhlásil bojkot cenám Anděl! Podle rockerů jsou výsledky zmanipulované! - Skupina Kabát letošní ceny Anděl bude bojkotovat. Podle ní jsou výsledky zmanipulované. ... - blesk.cz


Kabát:
Spokojený rocker Pepa Vojtek: Vyvedl těhotnou manželku na nákupy - Šťastný rocker Pepa Vojtek vyvedl těhotnou manželku. Pepa Vojtek s manželkou Jovankou vy... - blesk.cz


Chinaski:
Hudobníci budú na TOPFEST-e skladať rockovú maturitu. V porote sú aj Zuzana
Smatanová, či Polemic!
- Published by MUSIC ZONE on 24. marca 2016 | Komentáre vypnuté na Hudobníci budú na TOPFES... - music-zone.eu


Kabát:
Na 13-tom ročníku festivalu TOPFEST to roztočia kapely Kabát, Puddle of Mudd a
UK Subs!
- ... - livemusic.sk


Kabát:
Kabát a Wanastowi Vjecy na Topfeste 2016! - ... - livemusic.sk


 

Kabát

Fanúšikov: 176



A B C Č D E F G H CH I J K L Ľ M N O P Q R S Š T U V W X Y Z Ž



ako:
Kabát - Restaurace pana Kalvody
Kabát - Restaurace pana Kalvody



tlač

edituj
Pesničku videlo 2094 návštevníkov.

Kvalita tabov : bez hodnotenia
Hodnotilo ľudí: 0 ohodnoť aj ty
Prispievateľ:

Davis
  *** Autor textu: Milan Špalek *** Autor hudby: Ota Váňa

Restaurace pana Kalvody (po sluchu)
________________________________________

Úvodní riff (Riff 1) 3x
Ota Váňa

E/--------------------------/
B/--------------------------/
G/--------------------------/
D/--------------------------/
A/---------------5----------/
E/--0-6-7-0-5s-7---5-0-3-0--/

Nakonec Riff1 se přidá druhá kytara (Vyhrávka)
Tomáš Krulich

E/------------------/
B/------------------/
G/-2-2--2-2-2-2-2222/
D/-2-2--0-0-0-0-0000/
A/-0-0--0-0-0-0-0000/
E/-0-0--0-0-0-0-0000/

A pak se znovu opakuje Riff1 a Vyhrávka (obě kytary)
(Ota Váňa i Tomáš Krulich)

Sloka: 1.část (basa a bicí)
V Restauraci pana Kalvody dali dohromady kapelu možná dali by i dohromady národy, když to nejde v Bruselu.

Kytary: (Ota Váňa i Tomáš Krulich)
E/----------------------------------------/
B/----------------------------------------/
G/--------------------222--2-2-2-2--2222--/
D/--------------------222--2-2-2-2--2222--/
A/--------------------000--0-0-0-0--0000--/
E/--0-3-0----0-3-0----000--0-0-0-0--0000--/

Sloka: 2.část
(Ota Váňa i Tomáš Krulich)
Jelito by bylo na sádle,pro Maďary trochu halászlé,jeli vám to paní líto, jelito by taky mohlo bejt i na másle

---Riff1---

Sloka: 3.část
(Ota Váňa i Tomáš Krulich)
už se blíží limuzíny u Kalvodů bude raut
E/------------/
B/------------/
G/------------/
D/-5----77777-/
A/-5----77777-/
E/-3-3s-55555-/ (před ref. tlumeňe)


Ref.: Ref.Riff
(Ota Váňa)
Turci dorazily bez medu Němci schnitzel k obědu,Holanďanům nezachutnal sýr

E/--------------------------------------------------/
B/--------------------------------------------------/
G/-999999999-777777777-5------------2-2--2-2--2222--/
D/-999999999-777777777-5------------2-2--2-2--2222--/
A/-777777777-555555555-3--3s-7-5-3--0-0--0-0--0000--/
E/----------------------------------0-0--0-0--0000--/

a tak padla facka na sále Švédi ve třech vole měli namále,všem to nandal ruskej bohatýr.

--Ref.Riff--

Most před Slokou2:
(Ota Váňa)

--Riff1-- (ale bez vyhrávky)

Sloka: Vše stejně (Ota Váňa i Tomáš Krulich)

Ref.: Také vše stejně (Ota Váň)

Sólo:
(Ota Váňa)

E/-------------------------------------------------------------/
B/-------------------------------------------------------------/
G/-------------------------------------------------------------/
D/-------------------------------------------------------------/
A/-------------------------------------------------------------/
E/--0-18-19-0-18-19-18-19-18-19-0-0-18-19-0-18-19-18-17-16-15--/

---> Toto sólo se hraje celekm 6 krát .
Po ukončení skuz z 19 pražce na: Vyhrávku

Ref.: Také stejně (Ota Váňa)

Riff2 (Koncový)
(Ota Váňa i Tomáš Krulich)

E/--------------------------/
A/--------------------------/
G/--------------------------/
D/--------------------------/
A/---------------5----------/
E/--0-5-6-0-5s-7---5-0-3-0--/


Při ref. a sólu hraje Tomáš Krulich nějaké vyhrávky ,ale ty jsem už bohužel nenašel, takže se omlovám. Doufám že se ale i přes to bude tento tabulátor líbit (je to můj první) :) .


























 
»
Tvoje obľúbené položky
Tvoje obľúbené položky
»
Nové albumy interpreta
Nové albumy interpreta
DVD Kabat KabÁt 2013-2015 vypich 2014 + o2 arena [3dvd+cd]
DVD Kabát 2013-2015
vypich 2014 + o2
arena [3dvd+cd]
4xCD Kabat Original albums 4cd vol.1
4xCD Original albums
4cd vol.1
3xVINYL Kabat Suma sumarum [vinyl]
3xVINYL Suma sumarum
[vinyl]
CD Kabát Do pekla do nebe
CD Do pekla do nebe
2xCD Kabat Banditi di praga turne 2011
2xCD Banditi di praga
turne 2011
CD Kabat Banditi di praga
CD Banditi di praga

»
Najnovšie videá
Najnovšie videá

Kabát - Restaurace pana Kalvody

Kabát - RESTAURACE PANA KALVODY (Do pekl

Kabát - RESTAURACE PANA KALVODY /Piešťa

Kabát - Restaurace pana Kalvody

KABÁT - STUDIO 2014 - NOVÁ SKLADBA - Res

Kabát - 22.05.2015 Plzeň - kompletní kon
»
Najnavštevovanejšie piesne
Najnavštevovanejšie piesne
Malá dáma - akordy a text

Houby magický - akordy a text

Pohoda - akordy a text

Western Boogie - akordy

Kdoví jestli - akordy a text

Burlaci - akordy a text

Brousíme nože - akordy a text

Corrida - akordy a text

Schody - akordy a text

Malá Dáma ver.2 - akordy a text

viac




home | interpreti | register piesní | cd & dvd shop | pripomienky/nápady | kontakt | ochrana údajov | inzercia
Copyright © Pavol Bacigál, 2000-2015. Všetky práva vyhradené.
TOPlist