Katapult

piesne (178)

  texty (129) / preklady (1)
  akordy (81) / taby (26)
  noty (1) / slideshow (0)

články (56)
fotogaléria
diskusia
videá
diskografia
v obchode
odkazy
koncerty
sťahuj



pridaj vlastný článok

Katapult:
Katapult ohlásili nový album - 23. srpna 2016 skupina Katapult ohlásila na svém Facebooku termín vydání nového alba. Al...


Katapult:
Fotoreport - Katapult v Nitre - Katapult, jednoducho, Katapult, tak táto skupina nás všetkých zase po mnohých rokoch, ako... - Milan Gróf


Ac/dc:
KATAPULT oslavuje a vydáva CD - Tento rok je pre Oldu Říhu rokom jubilejným: oslávi 65.narodeniny a uplynie 50 rokov , ... - EMI Music


Katapult:
Nová alba: Katapult a Sade naživo, John Mayer možná naposledy - novinky.cz


Katapult:
Katapult zahrál na Nové scéně a představil DVD Rock života - ceskenoviny.cz


Katapult:
Anketa: Katapult je pořád svůj. Bohužel - centrum.cz


Katapult:
Olda Říha: Uvědomil jsem si, že vlastně začínám znovu, od nuly - denik.cz


Katapult:
Milovaný i nenáviděný Katapult zahraje v Národním divadle - ceskenoviny.cz


Katapult:
Katapult to dá lidem tvrdě do huby na Nové scéně - centrum.cz


Katapult:
Katapult představí dvě úplně nové písničky - denik.cz


 

Katapult

Fanúšikov: 27



A B C Č D E F G H CH I J K L Ľ M N O P Q R S Š T U V W X Y Z Ž



ako:
Katapult - Hlupák váha
Katapult - Hlupák váha

tlač

edituj
Rok vzniku: 1978
V originále: https://www.youtube.com/watch?v=P3QOEGvUIqo
Pesničku videlo 2876 návštevníkov.

Kvalita tabov :
Hodnotilo ľudí: 1 ohodnoť aj ty
Prispievateľ:

Soapy
  *** Autor textu: Robert *** Autor hudby: Katapult

Hlupák váha - Katapult

Intro, solo, finalove solo...

Akordy: http://www.supermusic.eu/skupina.php?idpiesne=373381

Pre rytmus a a dlzku jednotlivych tonov hrajte popri originalnej piesni




Intro:
E/--------------------------------------------------------------------------/-
B/------------------------------------ 8\-----------------------------------/-
G/--------5---7b9~------b9-b9r7p5------------7-7~----------2-3-2------------/-
D/----7------------------------------------------------3-----------3--------/-
A/--------------------------------------------------------------------------/-
E/--------------------------------------------------------------------------/-


E/--------------------------------------------------------------------------/-
B/--------------------------------------------------------------------8-8\--/-
G/-------4-5-4---------------------5-7-5---7b9-7b9-----b9-b9r7p5------------/-
D/----5---------5-5-7~---------7--------------------------------------------/-
A/--------------------------------------------------------------------------/-
E/--------------------------------------------------------------------------/-

E/--------------------------------------------------------------------------/-
B/--------------------------------------------------------------------------/-
G/-----7-7~----------2-3-2-------------4-5-4--------------------------------/-
D/---------------3-----------3------5---------5-5-7~------------------------/-
A/--------------------------------------------------------------------------/-
E/--------------------------------------------------------------------------/-

Dalej pokracuju akordy a spev...

Potom nasleduje druha cast intra:

E/--------------------------------------------------------------------------/-
B/-------------------------------------------------8-8\---------------------/-
G/-----------5-7-5---7b9-7b9~----b9-b9r7p5------------------7-7~-7-7~-------/-
D/-------7------------------------------------------------------------------/-
A/--------------------------------------------------------------------------/-
E/--------------------------------------------------------------------------/-

E/--------------------------------------------------------------------------/-
B/--------------------------------------------------------------------------/-
G/---------------2-3-2-------------4-5-4------------------------------------/-
D/------------3---------3-------5---------5-5-7~----------------------------/-
A/--------------------------------------------------------------------------/-
E/--------------------------------------------------------------------------/-

Znova akordy...

Potom solo:

E/--------------------------------------------------------------------------/-
B/--------------------------------------------------------------------------/-
G/--------5----7b9~----b9-b9r7p5----7b9-7b9r7p6p5--7~-----7b9r7--7b9r7p5----/-
D/-----7---------------------------------------------------------------- 5~-/-
A/--------------------------------------------------------------------------/-
E/--------------------------------------------------------------------------/-

E/--------------------------------------------------------------------------/-
B/--------------------------8--------------------------------8--------------/-
G/-----7b9-7b9~--------7b9-----7b9----7b9r7-----5-7~----7b9-----7b9---------/-
D/--------------------------------------------------------------------------/-
A/--------------------------------------------------------------------------/-
E/--------------------------------------------------------------------------/-

E/--------------------------------------------------------------------------/-
B/--------------------------------------------------------------------------/-
G/-----7b9---7b9r7p5--------------------------------------------------------/-
D/---------------------5~---------------------------------------------------/-
A/--------------------------------------------------------------------------/-
E/--------------------------------------------------------------------------/-

Pokracuju akordy...

Finalove solo...

E/--------------------------------------------------------------------------/-
B/----------5-------5------3-------3-----10-----------10-----10---------10--/-
G/---5-7-5--7b9r7---7------5b7r5---5-----12b14r12-----12-----12b14r12---12--/-
D/-7------------------------------------------------------------------------/-
A/--------------------------------------------------------------------------/-
E/--------------------------------------------------------------------------/-

E/--------------------------------------------------------------------------/-
B/-----5--------5------3-------3-----1--------------------------------------/-
G/-----7b9r7----7------5b7r5---5-----3b5r3~---------------------------------/-
D/--------------------------------------------------------------------------/-
A/--------------------------------------------------------------------------/-
E/--------------------------------------------------------------------------/-





b-bend (vytiahnutie struny o dva poltony)
r-release (vratenie vytiahnutej struny na povodny ton bez pustenia struny)
p-pull off (brnknutie struny prstom na hmatniku/rychle odtiahnutie prsta)
\-slide (prejdenie prsta po hmatniku smerom ku hlave gitary bez pustenia prsta/sklznutie)
~-vibrato (vibrovanie struny prstom na hmatniku/tremolom)







 
»
Tvoje obľúbené položky
Tvoje obľúbené položky
»
Nové albumy interpreta
Nové albumy interpreta
VINYL Katapult Kladivo na zivot [vinyl]
VINYL Kladivo na zivot
[vinyl]
2xDVD Katapult Pohadka tisice a jedne noci
2xDVD Pohadka tisice a
jedne noci
CD Katapult 50 let hraju rock
CD 50 let hraju
rock
CD  Katapult Made in rock'n'roll - live futurum praha
CD Made in
rock'n'roll -
live futurum
praha
CD Katapult 2010 Radosti zivota
CD Radosti zivota
6xCD Katapult 6cd box
6xCD 6cd box

»
Najnovšie videá
Najnovšie videá

KATAPULT - Hlupak vaha

Katapult - Hlupák váhá.wmv

Katapult - "Hlupák váhá" (City fest Žiar

Katapult - Hlupák váhá (the great czech

Katapult - Hlupák váha

Katapult live - Hlupák váha + Půlnoční z
»
Najnavštevovanejšie piesne
Najnavštevovanejšie piesne
Hlupák váhá - akordy a text

Hlupák váhá - akordy a text

Blues - spravne - akordy a text

Vojín XY - akordy a text

- akordy a text

Katapult - akordy a text

Vojín XY-ORIGINÁL - akordy a text

Někdy příště - akordy a text

Já nesnídám sám - akordy a text

Hlupák váhá - pro sólovou kytaru - taby

viac




home | interpreti | register piesní | cd & dvd shop | pripomienky/nápady | kontakt | ochrana údajov | inzercia
Copyright © Pavol Bacigál, 2000-2015. Všetky práva vyhradené.
TOPlist