Ortel

piesne (90)

  texty (70) / preklady (0)
  akordy (38) / taby (2)
  noty (4) / slideshow (1)

články (0)
fotogaléria
diskusia
videá
diskografia
v obchode
odkazy
koncerty
sťahuj



pridaj vlastný článok




 

Ortel

Fanúšikov: 12



A B C Č D E F G H CH I J K L Ľ M N O P Q R S Š T U V W X Y Z Ž



ako:
Ortel - City (solo)
Ortel - City (solo)

tlač

edituj
Rok vzniku: 2010
Pesničku videlo 2491 návštevníkov.

Kvalita tabov : bez hodnotenia
Hodnotilo ľudí: 0 ohodnoť aj ty
Prispievateľ:

Malfunction

Moje první taby, z odposlechu

e--------------------------------------------
H--12----12-14-15-14-12-10---8--7--5-6b--0---
G--------------------------------------------
D--------------------------------------------
A--------------------------------------------
E--------------------------------------------


e------------------------------10-------12----------
H--12----12-14-15-14-12-10---8----8--10----10--11b--
G---------------------------------------------------
D---------------------------------------------------
A---------------------------------------------------
E---------------------------------------------------


e--------------------------------------------
H--12----12-14-15-14-12-10---8--7--5-6b--0---
G--------------------------------------------
D--------------------------------------------
A--------------------------------------------
E--------------------------------------------


e------------------------------10-------12----------
H--12----12-14-15-14-12-10---8----8--10----10--11b--
G---------------------------------------------------
D---------------------------------------------------
A---------------------------------------------------
E---------------------------------------------------

loading...
 
»
Tvoje obľúbené položky
Tvoje obľúbené položky
»
Nové albumy interpreta
Nové albumy interpreta

»
Najnovšie videá
Najnovšie videá

Katie - City (Ortel)

ORTEL - Zapomenout

ORTEL - Tolik očí

ORTEL - MEŠITA

ORTEL - celý koncert + křest CD IDEJE

Ortel - City (cover)
»
Najnavštevovanejšie piesne
Najnavštevovanejšie piesne
Mešita - akordy a text

Defenestrace - akordy a text

Zůstaň mým domovem - text

City - akordy

Můj dům, můj hrad - akordy a text

Ortel-Mešita - akordy a text

Cizinec - akordy

Zůstaň mým domovem - akordy

Zapomenout - akordy a text

ČESKÝ MUŽ - akordy

viac




home | interpreti | register piesní | cd & dvd shop | pripomienky/nápady | kontakt | ochrana údajov | inzercia
Copyright © Pavol Bacigál, 2000-2015. Všetky práva vyhradené.
TOPlist