Braňo Mojsej

piesne (34)

  texty (32) / preklady (0)
  akordy (7) / taby (1)
  noty (0) / slideshow (0)

články (108)
fotogaléria
diskusia
videá
diskografia
v obchode
odkazy
koncerty
sťahuj



pridaj vlastný článok

Braňo Mojsej:
Braňo Mojsej zbalil podnikateľku z Prešova: Šokujúce odhalenie o Norinej
náhradníčke!
- Braňo Mojsej zbalil podnikateľku z Prešova: Šokujúce odhalenie o Norinej náhradní... - cas.sk


Braňo Mojsej:
Nora sa vracia v plnej sile: Žaloba na Mojseja! Chce Pereš i apartmán v
Tatrách
- Nora sa vracia v plnej sile: Žaloba na Mojseja! Chce Pereš i apartmán v Tatrách" styl... - cas.sk


Braňo Mojsej:
Ťažká rana pre Mojseja: Kvôli Noriným opletačkám sa jeho mama ocitla v
koncoch!
- Ťažká rana pre Mojseja: Kvôli Noriným opletačkám sa jeho mama ocitla v koncoch!" s... - cas.sk


Iveta Bartošová:
Bartošovej (†48) som chcel pomôcť, tvrdí Mojsej (46) - Zdroj: TV JOJ pred 11 hodinami | Hudobník Braňo Mojsej chcel pomôcť zosnulej spev... - noviny.sk


Iveta Bartošová:
Exmanžel Mojsejové zařídil Ivetě léčení: Rychtář mu ji chtěl prodat! - Exmanžel Nory Mojsejové chtěl Ivetě pomoc do léčebny Předchoz... - blesk.cz


Braňo Mojsej:
Presvedčený abstinent Mojsej spieva o fernete: Braňo, to ti ten alkohol tak
chýba?!
- Presvedčený abstinent Mojsej spieva o fernete: Braňo, to ti ten alkohol tak chýba?!" ... - cas.sk


Braňo Mojsej:
Braňo Mojsej sa vrátil a pije fernet cez internet! - 3. Máj 2014 | Komentáre sú deaktivované Branislav Mojsej je slovenský spevá... - music-zone.eu


Braňo Mojsej:
Braňo Mojsej sa sťahuje do hlavného mesta: Bude zo mňa„Blavák“! - Braňo Mojsej sa sťahuje do hlavného mesta: Bude zo mňa „Blavák“!" style="displa... - cas.sk


Braňo Mojsej:
Najväčší podraz na Noru? Braňo, ona túto informáciu tak skoro
nerozdýcha!
- Najväčší podraz na Noru? Braňo, ona túto informácia tak skoro nerozdýcha!" width=... - cas.sk


Braňo Mojsej:
Boj o majetky Nory Mojsejovej sa začal: Versače chce vilu na Pereši! - Boj o majetky Nory Mojsejovej sa začal: Versače chce vilu na Pereši!" width="458" heig... - cas.sk


 

Braňo Mojsej

Fanúšikov: 2



A B C Č D E F G H CH I J K L Ľ M N O P Q R S Š T U V W X Y Z Ž



ako:
Braňo Mojsej - Vianočná haluz
Braňo Mojsej - Vianočná haluz

tlač

edituj
Rok vzniku: 2015
Pesničku videlo 1866 návštevníkov.

Kvalita tabov : bez hodnotenia
Hodnotilo ľudí: 0 ohodnoť aj ty
Prispievateľ:

Mcmartini
Autor hudby: Braňo Mojsej

Intro
0:20
E|--------------------------------------------------------------------------------------|
H|--------------------------------------------------------------------------------------|
G|--------------------------------------------------------------------------------------|
D|--10--5--2--0--10--5--2--0--7---------------------------------------------------------|
A|--10--5--2--0--10--5--2--0--7---------------------------------------------------------|
D|--10--5--2--0--10--5--2--0--7---------------------------------------------------------|
let ring

Verse 1
0:46
E|--------------------------------------------------------------------------------------|
H|--------------------------------------------------------------------------------------|
G|--------------------------------------------------------------------------------------|
D|--7--2--7--0--7--2--7--0--------------------------------------------------------------|
A|--7--2--7--0--7--2--7--0--------------------------------------------------------------|
D|--7--2--7--0--7--2--7--0--------------------------------------------------------------|

Chorus
1:06
E|--------------------------------------------------------------------------------------|
H|--------------------------------------------------------------------------------------|
G|--------------------------------------------------------------------------------------|
D|--10--5--2--0--10--5--2--0------------------------------------------------------------|
A|--10--5--2--0--10--5--2--0------------------------------------------------------------|
D|--10--5--2--0--10--5--2--0------------------------------------------------------------|

Verse 2
1:27
E|--------------------------------------------------------------------------------------|
H|--------------------------------------------------------------------------------------|
G|--------------------------------------------------------------------------------------|
D|--7--2--7--0--7--2--7--0--------------------------------------------------------------|
A|--7--2--7--0--7--2--7--0--------------------------------------------------------------|
D|--7--2--7--0--7--2--7--0--------------------------------------------------------------|

Chorus
1:47
E|--------------------------------------------------------------------------------------|
H|--------------------------------------------------------------------------------------|
G|--------------------------------------------------------------------------------------|
D|--10--5--2--0--10--5--2--0--10--5--2--0--10--5--2--0----------------------------------|
A|--10--5--2--0--10--5--2--0--10--5--2--0--10--5--2--0----------------------------------|
D|--10--5--2--0--10--5--2--0--10--5--2--0--10--5--2--0----------------------------------|

Solo guitar
1:28
E|---------------------------------------------------15br(full)-12-----15br(full)-12----|
H|--8b(half)-8b(half)---8b(full)-8---7-----------------------------13~---------------13~|
G|-------------------9------------9---9-------------------------------------------------|
D|--------------------------------------9-------/10-------------------------------------|
A|----------------------------------------10-7------------------------------------------|
D|--------------------------------------------------------------------------------------|


E|--------------------------------------------------------------------------------------|
H|--------------------------------------------------------------------------------------|
G|--------------------------------------------------------------------------------------|
D|--12/14-12\10h12-10h12-12/14-12\10h12-10h12-12/14-12\10h12-10h12-12/14-12\10h12-10h12-|
A|--------------------------------------------------------------------------------------|
D|--------------------------------------------------------------------------------------|


E|--------------------------------------------------------------------------------------|
H|--------------------------------------------------------------------------------------|
G|----------------------------------17b(full)~~\----------------------------------------|
D|--12/14-12\10h12-10h12-12/14~~~~------------------------------------------------------|
A|--------------------------------------------------------------------------------------|
D|--------------------------------------------------------------------------------------|

Chorus (no guitar)
02:49

Chorus
03:09
E|--------------------------------------------------------------------------------------|
H|--------------------------------------------------------------------------------------|
G|--------------------------------------------------------------------------------------|
D|--10--5--2--0--10--5--2--0------------------------------------------------------------|
A|--10--5--2--0--10--5--2--0------------------------------------------------------------|
D|--10--5--2--0--10--5--2--0------------------------------------------------------------|

Solo guitar
E|--------------------------------------------------------------------------------------|
H|--------------------------------------------------------------------------------------|
G|----------------------19b(full)~\-----------------------------------------------------|
D|--------------------------------------------------------------------------------------|
A|--------------------------------------------------------------------------------------|
D|--------------------------------------------------------------------------------------|

Enjoy and have fun!!!



 
»
Tvoje obľúbené položky
Tvoje obľúbené položky
»
Nové albumy interpreta
Nové albumy interpreta
6
CM M12 [mojsejovci] Ja chcem byt v dome
CM Ja chcem byt v
dome

»
Najnovšie videá
Najnovšie videá

Brao Mojsej - Dnes to odplim

Brao Mojsej - Staromestsk Vianoce Koi

Brao Mojsej - Pre tvoje oi

Brao Mojsej - Do vody ma ho

Vianon hit- spieva oumen Brao Mojsej

TV JOJ rozhovor Brao Mojsej
»
Najnavštevovanejšie piesne
Najnavštevovanejšie piesne



home | interpreti | register piesní | cd & dvd shop | pripomienky/nápady | kontakt | ochrana údajov | inzercia

TOPlist