Hex

piesne (122)

  texty (107) / preklady (0)
  akordy (80) / taby (10)
  noty (0) / slideshow (0)

články (195)
fotogaléria
diskusia
videá
diskografia
v obchode
odkazy
koncerty
sťahuj



pridaj vlastný článok

Hex:
Hex chystá na festival Červeník nový program, maká na vylepšených aranžmánoch a
kvalitnejšom zvuku piesní
- Hex chystá na festival Červeník nový program, maká na vylepšených aranžmánoch a kvalitnej... - ahudba.sk


Hex:
Vydáva album Live in Stará tržnica - Slovenská kapela Hex vydáva album Live in Stará tržnica. Ide o záznam minuloročného konce...


Hex:
HEX vydáva unikátne live CD, kúpiť si ho môžete už na koncerte v Starej tržnici! - ... - livemusic.sk


Hex:
Kapela Hex vyhlásila súťaž o gitaru - Slovenská kapela Hex vyhlásila súťaž o akustickú gitaru jej frontmana Petra "Ďuďa" Dudáka...


Hex:
HEX sa pripravuje na turné s Družinou a vyhlasuje súťaž o gitaru! - ... - livemusic.sk


Hex:
Zverejnili pieseň Wilson City aj s videoklipom - Slovenská kapela Hex zverejnila skladbu Wilson City, ktorú nahrala pre film Wilsonov (201...


Hex:
Hexáci nahrali titulnú pieseň k filmu Wilsonov - Hexáci nahrali titulnú pieseň k filmu Wilsonov ... - ahudba.sk


Hex:
Nové turné Hexu aj na ľudovú nôtu, prizvali si kapelu Družina - Nové turné Hexu aj na ľudovú nôtu, prizvali si kapelu Družina ... - ahudba.sk


Hex:
Hex a Družina vyrazia na turné - Slovenské kapely Hex a Družina vyrazia na Všetko najlepšie acoustic tour 2015. Koncertná ...


Colours Of Ostrava:
Pestrý festival GalotaFest bude opäť väčší, ženie ho ambícia inšpirovať a
zabávať
- Pestrý festival GalotaFest bude opäť väčší, ženie ho ambícia inšpirovať a zabávať ... - ahudba.sk


 

Hex

Fanúšikov: 22



A B C Č D E F G H CH I J K L Ľ M N O P Q R S Š T U V W X Y Z Ž



ako:
Hex - Vetroň
Hex - Vetroň

tlač

edituj
Pesničku videlo 835 návštevníkov.

Kvalita tabov :
Hodnotilo ľudí: 1 ohodnoť aj ty
Prispievateľ:

LukasV

Vetron

Amaj7 - 002120

Intro
A E
4 1 2 3 4 1 2 3 4
e|-10-10-10-10-10-10-9-----9--9--9--9--9--9--7--------10-10-|
B|-10-10-10-10-10-10-10----10-10-10-9--9--9--9--------10-10-|
G|-9--9--9--9--9--9--9-----9--9--9--9--9--9--9--------11-11-|
D|----------------------------------------------------------|
A|----------------------------------------------------------|
E|----------------------------------------------------------|
F#mi A
1 2 3 4 1 2 3 4
e|-10-10-10-9-----9--9--9--9--9--9--7--------10-10-|
B|-10-10-10-10----10-10-10-10-10-10-10-------10-10-|
G|-11-11-11-11----11-11-11-9--9--9--9--------11-11-|
D|-------------------------------------------------|
A|-------------------------------------------------|
E|-------------------------------------------------|
D Hmi
1 2 3 4 1 2 3 4
e|-10-10-10-9-----9--9--9--9--9--9--7--------------|
B|-10-10-10-10----10-10-10-9--9--9--9--------------|
G|-11-11-11-11----11-11-11-9--9--9--9--------------|
D|-------------------------------------------------|
A|-------------------------------------------------|
E|-------------------------------------------------|
D Hmi
1 2 3 4 1 2 3 4
e|-------------------------------------------------|
B|-------------------------------------------------|
G|-------------1--2-----1--------------------------|
D|----------2-----------------2--------------------|
A|----------------------------------4-----4--------|
E|-------------------------------------------------|
(aj počas refrénu)


A Amaj7
1 2 3 4 1 2 3 4
e|-------------------------------------------------|
B|----------2-----------------------2--------------|
G|-2--------------2--------1--------------1--------|
D|-2-----2-----------2-----2-----2-----------2-----|
A|-0-----------------------0-----------------------|
E|-------------------------------------------------|
A D
1 2 1 2 3 4
e|------------------------------------|
B|----------------------2-------------|
G|-2-----2-----2--------------2-------|
D|-2-----2-----0----------------------|
A|-0-----0----------------------------|
E|------------------------------------|
Hmi
1 2 3 4 1 2 3 4
e|----------------------0-------------------------|
B|----------2-----------------------2-------------|
G|-2--------------2-----------2-----------2-------|
D|-0----------------------------------------------|
A|------------------------------------------------|
E|------------------------------------------------|
A Amaj7 A Amaj7
1 2 3 4 1 2 3 4
e|------------------------------------------------|
B|------------------------------------------------|
G|-2-----1--1-----2-----1-------------------------|
D|-2-----2--2-----2-----2-------------------------|
A|-0----------------------------------------------|
E|------------------------------------------------|
(aj počas verzií)


A Amaj7
Len tak si letím, na chodník padám
A D
Akoby náhodou
Hmi A Amaj7 A Amaj7
Poschodia sa menia veľkou rýchlosťou

A Amaj7
Míňam okná plné susedov
A D
Všetci sú zvedaví
Hmi A Amaj7 A Amaj7
Čakajú kedy už dopadnem, chcú sa tiež pobaviť

Refrén:

Amaj7 A E
Parara rara pa pa pa paaaaaa
F#mi A
Parara rara pa pa pa paaaaaa
D Hmi
parara rara pa pa pa paaaaaa
A Amaj7 A Amaj7
paaaaa raaaaa

Zatial nik netuší, že môj problém bol
V skutku závažný
S priateľkou som sa nezhodol
Tak som ju zavraždil

A tak si letím, míňam poschodia ako pelikán
Dúfam, že to dnes rozchodím
Možno ma rozcvičia

Solo (
A Amaj7 A
1 2 3 4 1 2 3 4
e|--------------------------------------------------|
B|--------------------------------------------------|
G|-----------6--------------------6--6h7---6--------|
D|--------7-----------------7--9--------------7-----|
A|--7--9--------------------------------------------|
E|--------------------------------------------------|
A D
1 2 1 2 3 4
e|-------------------------------------|
B|-------------------------------------|
G|-------------------------------------|
D|-------------------------------------|
A|--7-----------9----------------------|
E|-------------------------------------|
Hmi
1 2 3 4 1 2 3 4
e|--------12-------12-------12-------12-------------|
B|--12-14----12-14----12-14----12-14----14----------|
G|--------------------------------------------------|
D|--------------------------------------------------|
A|--------------------------------------------------|
E|--------------------------------------------------|
A Amaj7
1 2 3 4 1 2 3 4
e|--------------------------------9-----------------|
B|--10----9--9-----10----10h12-12-------------------|
G|-----------------------------------9--------------|
D|--------------------------------------------------|
A|--------------------------------------------------|
E|--------------------------------------------------|
A Amaj7 A
1 2 3 4 1 2 3 4
e|--------------------------------------------------|
B|--------------------------------------------------|
G|-----------6--------------------6--6h7---6--------|
D|--------7-----------------7--9--------------7-----|
A|--7--9--------------------------------------------|
E|--------------------------------------------------|
A D
1 2 1 2 3 4
e|-------------------------------------|
B|-------------------------------------|
G|-------------------------------------|
D|-------------------------------------|
A|--7-----------9----------------------|
E|-------------------------------------|
Hmi
1 2 3 4 1 2 3 4
e|--10----10-12-12-12-10----10----10-12-12-12-10----|
B|--10----10-10-10-10-10----10----10-10-10-10-10----|
G|--------------------------------------------------|
D|--------------------------------------------------|
A|--------------------------------------------------|
E|--------------------------------------------------|
A Amaj7
1 2 3 4 1 2 3 4
e|--12-------------12~~~~12-------------------------|
B|--10-------------12h14-12-------------------------|
G|--------------------------------------------------|
D|--------------------------------------------------|
A|--------------------------------------------------|
E|--------------------------------------------------|

D E A
Moje nové krídla sú však tajnou zárukou,
D A
Že nad chodníkom vyberiem to ostrou zákrutou
D E A
Ticho ako vietor preženiem sa nad strechou
D E
Na potešenie oka prekvapených divákov


A tak si letím, na chodník padám
Akoby náhodou
Poschodia sa menia veľkou rýchlosťou
Míňam okná plné susedov
Všetci sú zvedaví
Čakajú kedy už dopadnem, chcú sa tiež pobaviť


Parara rara pa pa pa paaaaaa
Parara rara pa pa pa paaaaaa
parara rara pa pa pa paaaaaa
paaaaa raaaaa
2x

A E
Parara rara pa parara rara pa
F#mi A
Parara rara pa parara rara pa
D Hmi
Parara rara pa parara rara pa
4X

Outro solo
(začína na 3. opakovaní predchádzajúceho odseku na akorde F#mi)
F#mi A
1 2 3 4 1 2 3 4
e|--------------------------------------------------|
B|-----------------------14----14-------------------|
G|--------14----16-16-14-14----14----16-16-16-14----|
D|-12/14~~~~----14-14-14-------------14-14-14-14----|
A|--------------------------------------------------|
E|--------------------------------------------------|

D Hmi
1 2 3 4 1 2 3 4
e|--------------------------------------------------|
B|--14----14-14-15-15-14-15----17----17-17-17-14----|
G|--14----14-14-14-14-14-14----14----14-14-14-14----|
D|--------------------------------------------------|
A|--------------------------------------------------|
E|--------------------------------------------------|

A E
1 2 3 4 1 2 3 4
e|-/19----19-19-17----17-17-16-16-16-14----14-14-14-|
B|--------------------------------------------------|
G|--------------------------------------------------|
D|--------------------------------------------------|
A|--------------------------------------------------|
E|--------------------------------------------------|
F#mi A
1 2 3 4 1 2 3 4
e|-/21----21-21-19-19-19-19-17-17-17-16----16-16-14-|
B|--------------------------------------------------|
G|--------------------------------------------------|
D|--------------------------------------------------|
A|--------------------------------------------------|
E|--------------------------------------------------|

D Hmi
1 2 3 4 1 2 3 4
e|--------------------------------------------------|
B|--15-15-15-15-17-17-15-15-15-17-17-17-17-15-17-17-|
G|--14-14-14-14-14-14-14-14-14-14-14-14-14-14-14-14-|
D|--14-14-14-14-14-14-14-14-14-14-14-14-14-14-14-14-|
A|--------------------------------------------------|
E|--------------------------------------------------|



loading...
 
»
Tvoje obľúbené položky
Tvoje obľúbené položky
»
Nové albumy interpreta
Nové albumy interpreta
CD Hex Poison in the system – the demos
CD Poison in the
system – the
demos
CD Hex Ty a ja
CD Ty a ja
2xCD Hex 1996-2000
2xCD 1996-2000
2xCD Hex 1990-1995
2xCD 1990-1995

»
Najnovšie videá
Najnovšie videá

Hex - Vetron

HEX - Vetroň.avi

Hex - Vetroň , live HD Rocková jeseň 201

Hex - Vetroň

HEX Benátska noc 2011 Každý deň je ned

Hex - Vetroň | Chart show @TV MARKIZA
»
Najnavštevovanejšie piesne
Najnavštevovanejšie piesne
Keď sme sami - akordy a text

Keď sme sami - text

Indiánske leto - akordy a text

Nikdy nebolo lepšie - akordy a text

V piatok podvečer - akordy a text

Vetroň - taby

Beh - akordy

Náš svet je pestrý - akordy a text

V piatok podvečer - akordy a text

Život - akordy a text

viac




home | interpreti | register piesní | cd & dvd shop | pripomienky/nápady | kontakt | ochrana údajov | inzercia
Copyright © Pavol Bacigál, 2000-2015. Všetky práva vyhradené.
TOPlist