Nedvedi

piesne (326)

  texty (310) / preklady (1)
  akordy (193) / taby (8)
  noty (0) / slideshow (1)

články (35)
fotogaléria
diskusia
videá
diskografia
v obchode
odkazy
koncerty
sťahuj



pridaj vlastný článok

Honza Nedvěd:
Jazzmani se vrhli na Nedvěda, předělali »kotlíkářské hymny« - Znalost písní Jana Nedvěda je u táborových ohňů samozřejmostí, nyní si jejich melodie p... - halonoviny.cz


František Nedvěd:
Před 20 lety přišlo na Nedvědy na Strahově bezmála 70 000 lidí! Dnes už spolu
slavné bratry neuvidíte…
- Bratři Jan a František Nedvědovi už spolu nezpívají. Bratři Jan a František Nedvědovi už... - blesk.cz


Band A:
COUNTRYFEST BOHUNICE 2016 sa predstavuje - Willie Jones (Foto: Countryfest Bohunice) Willie Jones (Foto: Countryfest Bohunice... - countryworld.cz


Nedvedi:
Hudobníka Jana Nedvěda trápia finančné problémy: Strach o svoju budúcnosť - Hudobníka Jana Nedvěda trápia fnančné problémy: Strach o svoju budúcnosť" style="display:... - cas.sk


Brontosauři:
Pesničkár Honza Nedvěd stráca sluch. Hrozí mu, že ohluchne - Pesničkár Honza Nedvěd stráca sluch. Hrozí mu, že ohluchne Je psychicky na d... - aktuality.sk


Nedvedi:
Jan a František Nedvědi: Naše bratrské vztahy? Skvělé, jsme přece spolu na pódiu - denik.cz


Nedvedi:
Nedvědi – 44slavných písniček 2… a ještě něco navíc - muzikus.cz


Fešáci:
CD+DVD: Nedvědi po 10letech spolu na jednom podiu - Universal Music - Výroční koncert bratří Nedvědů po 10 letech opět spolu na jednom podiu !...


Nedvedi:
Nedvědi opäť spolu na záver jubilejnej Lodenice - Nedvědi opäť spolu na záver jubilejnej Lodenice Záver festivalovej sezóny v campe Pieš...


Arena:
LODENICA už za 20 dní - predpredaj vrcholí - LODENICA už za 20 dní - predpredaj vrcholí Program jubilejného 10. ročníka festivalu Z...


 

Nedvedi

Fanúšikov: 64



A B C Č D E F G H CH I J K L Ľ M N O P Q R S Š T U V W X Y Z Ž



ako:
Nedvedi - Podvod
Nedvedi - Podvod

tlač

edituj
Pesničku videlo 5855 návštevníkov.

Kvalita tabov : bez hodnotenia
Hodnotilo ľudí: 0 ohodnoť aj ty
Prispievateľ:

Donald88

capo 2 Nedvědi - Podvod



e|-------------------------7-5-7--5-7-5---5--------------------------------|

h|--5-7--5-7---5-7-5-7-8-5--------------8---8-8-7-5-7-8-5------------------|

g|-------------------------------------------------------------------------|

D|-------------------------------------------------------------------------|

A|-------------------------------------------------------------------------|

E|-------------------------------------------------------------------------|



e|-3-------------------------------2---------------------------------------|

h|----5------------------------------3---------------3--3--5--3------------|

g|------4--------------0-2--2/4-2-------2---2-------2--2--4--2-------------|

D|---------5---4-2---2--------------------4---2-0--------------------------|

A|-------------------------------------------------------------------------|

E|-------------------------------------------------------------------------|



e|----3--------------------------------------------0-3-2-5-3-2-2-3-0-------|

h|----0---0-1-0----3--3--5--3---1---1---1--------1-------------------0-1---|

g|----0----------2--2--4--2-------2---2---2----4-------------------------2-|

D|----0---------------------------2---2---2--------------------------------|

A|-2-----------------------------------------------------------------------|

E|---3---------------------------------------------------------------------|



e|-------------2-3-5-7-8-7---7-7--7-5-7------------------------------------|

h|-----0-1-3-5-------------------------------------------------------------|

g|-2-2---------------------------------------------------------------------|

D|-------------------------------------------------------------------------|

A|-------------------------------------------------------------------------|

E|-------------------------------------------------------------------------|


 
»
Tvoje obľúbené položky
Tvoje obľúbené položky
»
Nové albumy interpreta
Nové albumy interpreta
CSL Nedvedi Honza A Frantisek Frantisek/slidepack
CSL Frantisek/slidep
ack
CD Brontosauri Hlidej lasku,.. /zlate hity
CD Hlidej lasku,..
/zlate hity
2xCD Nedvedi Honza A Frantisek 44 slavnych 1 pisnicek
2xCD 44 slavnych 1
pisnicek
CD Nedved Honza Jakub
CD Jakub
CD Nedved Honza 20 let pisnicek h.nedveda
CD 20 let pisnicek
h.nedveda

»
Najnovšie videá
Najnovšie videá

Nedvěd Honza-Podvod

nedvedovci - podvod

Honza Nedvěd - Podvod

Nedvědi - Podvod

Honza Nedved - Podvod

Podvod - Nedvědi na Strahově
»
Najnavštevovanejšie piesne
Najnavštevovanejšie piesne
Na kameni kámen - akordy a text

Podvod - akordy a text

Stánky - akordy a text

TULÁCKÝ RÁNO - akordy a text

Růže z papíru - akordy a text

Valčíček - akordy a text

Igelit - akordy a text

Ptáčata - akordy a text

Skládanka - akordy a text

Rosa na kolejích - akordy a text

viac




home | interpreti | register piesní | cd & dvd shop | pripomienky/nápady | kontakt | ochrana údajov | inzercia
Copyright © Pavol Bacigál, 2000-2017. Všetky práva vyhradené.
TOPlist