Lindsay Lohan


piesne (50)

  texty (37)
  akordy (2)
  taby (3)
  preklady (9)


články (527)
Fotky (115)
diskusia
videá
diskografia
v obchode
odkazy
koncerty
sťahuj



pridaj vlastný článok

Lindsay Lohan:
Lindsay Lohan slaví narozeniny bez drog a alkoholu: Průšvihářka se zbavila
svých démonů
- Herečka a známá průšvihářka Lindsay Lohan slaví 34. narozeniny. Dětská h...


Lindsay Lohan:
Lindsay Lohan mala krvavú nehodu na dovolenke: Odtrhlo mi polku prsta! - cas.sk


Lindsay Lohan:
Problémová Lindsay zmiatla vlastného snúbenca: Veľká novinka a obvinenie! - cas.sk


Lindsay Lohan:
Lindsay Lohan zbalila ruského oligarchu. Chváli ho i nádejný svokor - pluska.sk


Lindsay Lohan:
Lindsay Lohanová se svým dvaadvacetiletým miliardářem z RuskaDalších 5
fotografií v galerii
- idnes.cz


Lindsay Lohan:
Súd zamietol žalobu Lindsay Lohan proti televízii Fox


Lindsay Lohan:
Lindsay Lohan dokončila verejnoprospešné práce


Lindsay Lohan:
Nový trest pre problémovú Lindsay Lohan: Pozor, lebo skončíš v base! - bleskovky.sk


Lindsay Lohan:
Lindsay Lohan sa nakazila vírusom chikungunya


Lindsay Lohan:
Lindsay Lohan nebude muset před soudem hovořit o svém potratu - osobnosti.cz


 

Lindsay Lohan

Fanúšikov: 0



A B C Č D E F G H CH I J K L Ľ M N O P Q R S Š T U V W X Y Z Ž



ako:
Lindsay Lohan - Take Me Away
Lindsay Lohan - Take Me Away

tlač

edituj
Poznámka: Soundtrack Freaky Friday

Pesničku videlo 3158 návštevníkov.

Kvalita tabov : bez hodnotenia
Hodnotilo ľudí: 0 ohodnoť aj ty

e-------------------------------------------------------------------
h-------------------------------------------------------------------
g-------------------------------------------------------------------
D----4-4-××××××-4-4--××××××--4--××--4--××--4-4-4-4-4-4-4-4----------
A----4-4--------4-4----------4------4------4-4-4-4-4-4-4-4----------
E----2-2--------2-2----------2------2------2-2-2-2-2-2-2-2----------


e-------------------------------------------------------------------
h-------------------------------------------------------------------
g-------------------------------------------------------------------
D-------------------------------------------------------------------
A-------0-1-2-2------3--2--0--2--2--1--0----------------------------
E---2-2-------------------------------------------------------------




mělo by to být správně, × znamená osminová pomlka...



 
»
Tvoje obľúbené položky
Tvoje obľúbené položky
»
Najnovšie videá
Najnovšie videá

»
Tvoje obľúbené piesne
Tvoje obľúbené piesne
»
Najnavštevovanejšie piesne
Najnavštevovanejšie piesne
»
Nové albumy interpreta
Nové albumy interpreta



home | interpreti | register piesní | cd & dvd shop | pripomienky/nápady | kontakt | ochrana údajov | inzercia