Nazareth


piesne (256)

  texty (212)
  akordy (12)
  taby (24)
  preklady (19)


články (91)
Fotky (9)
diskusia
videá
diskografia
v obchode
odkazy
koncerty
sťahuj



pridaj vlastný článok

MCCAFFERTY:
Recenze: Monkey Business polití živou vodou. Nové album má energii jejich
debutu
- Tereza Černochová podává jeden ze svých nejlepších pěveckých výkonů. Mezi host... - aktualne.cz


Motörhead:
Když se ještě mohlo ven | Martin Hanáček vzpomíná na Lemmyho, ZZ Top a
další hlučné legendy
- Vydáno včera Fotografov iREPORTu se v novém seriálu vrací do dob, kdy se je... - ireport.cz


Nazareth:
Fotoreport z koncertu legendárního Nazarethu v Ústí nad Labem10. února 2020
(21:57)
- Hostem večera byla legendární česká kapela v čele s Mírou Chrástkou a to Turbo a ... - musicgate.cz


Nazareth:
Nazareth zahrají 20. dubna 2020 ve Foru Karlín - musicserver.cz


Nazareth:
Nazareth so slovenskými oslavami svojej päťdesiatky ešte neskončili - rocker.sk


Nazareth:
Nazareth zpívali hity Love Hurts nebo Dream On pražské Lucerně - ireport.cz


Nazareth:
Nazareth v brněnském Sonu servírovali své největší hity - ireport.cz


Nazareth:
Nazareth našli zpěváka a chystají desku - denik.cz


Nazareth:
Nazareth si nikdy nedovolí na svém koncertě vynechat největší hity.
Potvrdí to i u nás
- musicserver.cz


Nazareth:
Nazareth si nikdy nedovolí na svém koncertě vynech - musicserver.cz


 

Nazareth

Fanúšikov: 2



A B C Č D E F G H CH I J K L Ľ M N O P Q R S Š T U V W X Y Z Ž



ako:
Nazareth - Take The Rap
Nazareth - Take The Rap

tlač

edituj
Pesničku videlo 2891 návštevníkov.

Kvalita tabov : bez hodnotenia
Hodnotilo ľudí: 0 ohodnoť aj ty
  *** Autor textu: Nazareth *** Autor hudby: Nazareth

Základní riff (Z):

E|--------------------------------|---------------------------------|--------------------------------|
B|--------------------------------|---------------------------------|--------------------------------|
G|--------------------------------|---------------------------------|--------------------------------|
D|-2---2----------7---5-----------|-5-------4-------2---4-----------|-2---2----------7---5-----------|
A|-0---0--3---4-----------0---0---|-------------------------3---0---|-0---0--3---4-----------0---0---|
E|--------------------------------|---------------------------------|--------------------------------|


E|---------------------------------|
B|---------------------------------|
G|---------------------------------|
D|-5-------4-------2---4-----------|
A|-------------------------3---0---|
E|---------------------------------|

A riff
D|-2--2--------2--2-------|
A|-0--0--3--4--0--0--3--4-|
ad lib.

D riff
G|-2--2--4--2--2-----4----|
D|-0--0--0--0--0-----0----|

G riff
A|-5--5--7--5--5-----7----|
E|-3--3--3--3--3-----3----|

E riff
D|-2--2--x--x-|-2--2--x--x-|-2--x--2----|
A|-2--2--x--x-|-2--2--x--x-|-2--x--2----|
E|-0--0--x--x-|-0--0--x--x-|-0--x--0----|

Píseň:

předehra: ZZZZ ZZ
sloka: AAAAAAAA
refrén: DGZ DGZ ZZ
sloka: AAAAAAAA
refrén: DGZ DGZ
bridge: EEEE EEEE E
solo: AAAAAAAA
refrén: DGZ DG
sloka: AAAAAAAA
refrén: DGZ DGZ DGZ DG
dohra: Z Z

Rytmus, frázování a detaily třeba naposlouchat.

 
»
Tvoje obľúbené položky
Tvoje obľúbené položky
»
Najnovšie videá
Najnovšie videá

»
Tvoje obľúbené piesne
Tvoje obľúbené piesne
»
Najnavštevovanejšie piesne
Najnavštevovanejšie piesne
»
Nové albumy interpreta
Nové albumy interpreta



home | interpreti | register piesní | cd & dvd shop | pripomienky/nápady | kontakt | ochrana údajov | inzercia