Horkýže Slíže

piesne (691)

  texty () / preklady ()
  akordy () / taby ()
  noty () / slideshow ()

články (450)
fotogaléria
diskusia
videá
diskografia
v obchode
odkazy
koncerty
sťahuj



 

Horkýže Slíže

Fanúšikov: 14



A B C Č D E F G H CH I J K L Ľ M N O P Q R S Š T U V W X Y Z Ž



ako:
Horkýže Slíže - Láskyplní - basa
Horkýže Slíže - Láskyplní - basa

tlač

edituj
Rok vzniku: 2012
Pesničku videlo 5403 návštevníkov.

Kvalita tabov :
Hodnotilo ľudí: 1 ohodnoť aj ty
HORKÝŽE SLÍŽE - LÁSKYPLNÍ


Taby pre basu


Intro 2x
G-------------------------------------------------------------------
D-------------------------------------------------------------------
A-44-44-44-44-4444-22-22-20-00-0000-44-44-4-----------------4-4444--
E------------------------------------------2-22-2222-55-54-4--------

Refrén 2x
G------------------------------------------
D------------------------------------------
A-4444-4444-2222------4444-----------4444--
E----------------5555------2222-5544-------

1. Sloha
G-------------------------------------------------------------------
D-------------------------------------------------------------------
A-44-44-44-44-4444-22-22-20-00-0000-44-44-4-----------------4-4444--
E------------------------------------------2-22-2222-55-54-4--------

2. Sloha (medzi hviezdičkami sa hrá dvakrát)
G/--------------------/-/--------------------/
D/*------------------*/-/*------------------*/
A/*-44-44-44-44-7777-*/-/*------------------*/
E/--------------------/-/--44-44-44-44-7777--/

Refrén
1. Sloha
2. Sloha
Refrén

Medzihra
G/----------------/-/-------------/--------------------
D/*--------------*/-/*-----------*/--------------------
A/*-10-10-9-10-9-*/-/*-4-4-4-777-*/-4-(nechať doznieť)-
E/----------------/-/-------------/--------------------

Sólo 2x
G------------------------------------------
D------------------------------------------
A-4444-4444-2222------4444-----------4444--
E----------------5555------2222-5544-------

Outro
G-----------------------------------------------------------------
D-----------------------------------------------------------------
A-44-44-44-44-4444-44-44-44-44-4444-44-44-44-44-4444-44-44-44-44--
E-----------------------------------------------------------------


Pripomienky posielať na e-mail: ac_MateZko@azet.sk


 
»
Tvoje obľúbené položky
Tvoje obľúbené položky
»
Najnovšie videá
Najnovšie videá

»
Tvoje obľúbené piesne
Tvoje obľúbené piesne
»
Najnavštevovanejšie piesne
Najnavštevovanejšie piesne
L. A. G. song - akordy a text

Silný refrén - spravne - akordy a text

Nazdar - správně - akordy a text

Malá Žužu - akordy a text

Vójak - akordy a text

Mám v p*či na lehátku - taby

Horná Dolná - akordy a text

Osemnásť - akordy a text

A ja sprostá - akordy a text

Liza a Wendy LEPSIE!!! - akordy a text

Atómový kryt - oprava - akordy a text

Starý Čočil - akordy a text

18 - akordy a text

Horkýže slíže - akordy a text

Mám pi*i na lehátku - akordy

R n′B Soul - akordy a text

Kozy, Husle, Rooney - akordy a text

Vlak - akordy

Silný refrén - text

Cigarety - akordy a text

viac

»
Nové albumy interpreta
Nové albumy interpreta



home | interpreti | register piesní | cd & dvd shop | pripomienky/nápady | kontakt | ochrana údajov | inzercia