Pavol Habera


piesne (177)

  texty (165)
  akordy (92)
  taby (4)
  preklady (2)


články (548)
Fotky (112)
diskusia
videá
diskografia
v obchode
odkazy
koncerty
sťahuj



pridaj vlastný článok

Pavol Habera:
Vianočný album Paľa Haberu vychádza po 24 rokoch na vinyle - Legendárny, multiplatinový a mnohými cenami ovenčený Haberov album vianočných pies...


Pavol Habera:
Vianočný album Pavla Haberu Svet lásku má vychádza po 24 rokoch na vinyle - Legendárny, multiplatinový a mnohými cenami ovenčený Haberov album vianočných pies... - bleskovky.sk


Pavol Habera:
Vánoční album Paľa Habery 'Svet lásku má' vychází po letech na vinylu - Paľo Habera se svojí kapelou v současnosti vydá novou píseň zpravidla pouze před s... - musicserver.cz


Pavol Habera:
Kat ze SuperStar Paľo Habera: Ocenění přebíral jako elegán! - Zpěvák Paľo Habera (58) je sice u nás v posledních letech známý především jak... - blesk.cz


Pavol Habera:
Kat ze SuperStar roztál! Habera s dcerou Ellou, která už slaví 18 - Prostřední potomek muzikanta Paľa Habery (58), dcera Ella, oslavila osmnáctiny. Zat... - blesk.cz


Pavol Habera:
Habera si po skončení SuperStar nebral servítky: Tohle vzkázal kolegům z
branže
- 3. června 2020 15:18 Zpěvák Pavol Habera (58) už poněkolikáté zasedl v porotě Su... - super.cz


Pavol Habera:
Kat Habera po skončení SuperStar: Drsný vzkaz pěveckým kolegům - PředchozíDalší 3. června 2020 ? 07:49Sdílej: Emoce doznívají, někteří se pro... - blesk.cz


Pavol Habera:
Zakázanou pařbu po SuperStar už řeší policie Komu hrozí pokuta 3 miliony? - PředchozíDalší 3. června 2020 ? 11:00Sdílej: To vypadá na pořádný malér! Pol... - blesk.cz


Marián Čekovský:
Superstar čelí obrovskej vlne kritiky: Diváci zúria... Hnus, katastrofa a
správanie ako družstevníčka z JRD
- Superstar čelí obrovskej vlne kritiky. Superstar čelí obrovskej vlne kritiky.... - topky.sk


Monika Bagárová:
SuperStar 2020 se stala Barbora Piešová Poslední hit málem nedozpívala - PředchozíDalší 1. června 2020 ? 00:01Sdílej: Česko a Slovensko zná svoji SuperS... - blesk.cz


 

Pavol Habera

Fanúšikov: 4



A B C Č D E F G H CH I J K L Ľ M N O P Q R S Š T U V W X Y Z Ž



ako:
Pavol Habera - Tichá Noc
Pavol Habera - Tichá Noc

tlač

edituj
Poznámka: Totalna haluska :D

Pesničku videlo 12966 návštevníkov.

Kvalita tabov :
Hodnotilo ľudí: 4 ohodnoť aj ty

e|---0---2-0---------0---2-0----------7--7--4--4--5--5--------------5--4-2---0--2-0--------------5--4-2--0--2-0------
B|------------2---------------2-------------------------5-----7--7-------------------2-----7--7-------------------2--
G|-------------------------------------------------------------------------------------------------------------------
D|-------------------------------------------------------------------------------------------------------------------
A|-------------------------------------------------------------------------------------------------------------------
E|-------------------------------------------------------------------------------------------------------------------

e|------7--7---10--9-7----5-9-------5--------------------|
B|------------------------------------5---2--5--3--------|
G|------------------------------------------------4--2---|
D|-------------------------------------------------------|
A|-------------------------------------------------------|
E|-------------------------------------------------------|

 
»
Tvoje obľúbené položky
Tvoje obľúbené položky
»
Najnovšie videá
Najnovšie videá

»
Tvoje obľúbené piesne
Tvoje obľúbené piesne
»
Najnavštevovanejšie piesne
Najnavštevovanejšie piesne
»
Nové albumy interpreta
Nové albumy interpreta



home | interpreti | register piesní | cd & dvd shop | pripomienky/nápady | kontakt | ochrana údajov | inzercia