Jakub Smolík

piesne (104)

  texty () / preklady ()
  akordy () / taby ()
  noty () / slideshow ()

články (11)
fotogaléria
diskusia
videá
diskografia
v obchode
odkazy
koncerty
sťahuj



 

Jakub Smolík

Fanúšikov: 0



A B C Č D E F G H CH I J K L Ľ M N O P Q R S Š T U V W X Y Z Ž



ako:
Jakub Smolík - Pán Bůh řekl vraťte se
Jakub Smolík - Pán Bůh řekl vraťte se

tlač

edituj
Rok vzniku: 2002
V originále: Leaving On A Jet Plane
Pesničku videlo 3061 návštevníkov.

Kvalita tabov : bez hodnotenia
Hodnotilo ľudí: 0 ohodnoť aj ty
Prispievateľ:

petr554
  *** Autor textu: Pavel Cmíral (cz) John Denver (en) *** Autor hudby: John Denver
Tempo = 120
Guitar steel
Takt 4/4

Legend
L - tied note
x - dead note
h - hammer on/pull off
b - bend
s - slide
~ - vibrato
g - ghost note
> - accentuated note
t - trill
M - palm mute
. - staccato
P - popping (bass)
S - slapping (bass)
+ - tapping
W - wide vibrato
< - fade in
w - whammy bar
= - tremolo picking
v - brush up
^ - brush down
V - pick stroke up
n - pick stroke down


E |-----------0----||-2h-3L-3--0L-0-------------|-----------0L-0L----0-------|
B |--------3-------||----------------3L-3-------|--0--0--3-------------------|
G |----------------||o------2L-2--------2-------|----------------------------|
D |----------------||o0L-0--------0L-0----------|--------0L-0--------0-------|
A |----------------||---------------------------|----------------------------|
E |----------------||---------------------------|--3L-3--------3-------------|


--2h-3L-3--0L-0-------------|-----------0L-0L----0-------|
-----------------3L-3-------|--0--0--3-------------------|
--------2L-2--------2-------|----------------------------|
--0L-0--------0L-0----------|--------0L-0--------0-------|
----------------------------|----------------------------|
----------------------------|--3L-3--------3-------------|


--2h-3L-3--0L-0-------------|--3-----2--0L-0-------------|
-----------------3L-3-------|-----------------3L-3-------|
--------2L-2--------2-------|----------------------------|
--0L-0--------0L-0----------|--------0-----------0-------|
----------------------------|----------------------------|
----------------------------|--3-----------3-------------|


--0L----0L-0L-0--0--2s-3----|-----------------------0---||
-----------2----------------|-----------2--------3------||
----------------------------|-----------------0--------o||
--------2-----------2-------|--------2-----------------o||
--0-----------0-------------|--0-----------0------------||
----------------------------|---------------------------||


--0-------------------------|-----------5----|--5L----5--2L-2--2L-2-------|
-----------------3--2L------|--2-------------|----------------------------|
-----------0----------------|----------------|--------2L-2--------2-------|
--------2-----------2L------|--2-------------|--0-----------0L-0----------|
--0-----------0-------------|--0-------------|----------------------------|
----------------------------|----------------|----------------------------|


--3-----2L-2L-2L----2-------|--5-----3--2L-2--5L-5-------|
-----------3L-3L----3-------|----------------------------|
----------------------------|--------2L-2--------2-------|
--------0L-0--------0-------|--0-----------0L-0----------|
----------------------------|----------------------------|
--3-----------3-------------|----------------------------|


--3-----2L-2L-2L----2-------|--5-----3--2L-2--5L-5-------|
-----------3--3L----3-------|----------------------------|
----------------------------|--------2L-2--------2-------|
--------0L-0--------0-------|--0-----------0L-0----------|
----------------------------|----------------------------|
--3-----------3-------------|----------------------------|


--3--2-----0----------------|--0--------------0--2-------|
-----------------3----------|----------------------------|
----------------------------|-----------0----------------|
--------2-----------2-------|--------2-------------------|
--------------2-------------|--0-----------0-------------|
--0-------------------------|----------------------------|

^
--5-----------------5--5----|--5L----5-------------------|
--2-------------------------|-----------7L-7L-7----------|
--2-------------------------|----------------------------|
--2-------------------------|--------7L-7--------7-------|
----------------------------|--5-----------5L-5----------|
----------------------------|----------------------------|


--7L----7-------------------|--------5--------5----------|
--------10-8L-8--10L10------|-----------7----------------|
----------------------------|----------------------------|
--------9L-9--------9-------|--------7L-7--------7-------|
--10----------10L10---------|--5-----------5L-5----------|
----------------------------|----------------------------|


--3-----2--0----------------|-----------------2h-3-------|
-----------------3L-3-------|-----------3----------------|
----------------------------|--------2-----------2-------|
--------0-----------0-------|--0-----------0-------------|
----------------------------|----------------------------|
--3-----------3-------------|----------------------------|


--2--------0----------------|--0-------------------------|
-----------------3----------|-----------------3L-3-------|
--------2-----------2-------|-----------0----------------|
--0-----------0-------------|--------2-----------2-------|
----------------------------|--0-----------0-------------|
----------------------------|----------------------------|


-----------------------0----||-2h-3L-3--0L-0-------------|
--2-----------------3-------||----------------3L-3-------|
----------------------------||o------2L-2--------2-------|
--2-------------------------||o0L-0--------0L-0----------|
----------------------------||---------------------------|
----------------------------||---------------------------|


-----------0L-0L----0-------|--2h-3L-3--0L-0-------------|
--0--0--3-------------------|-----------------3L-3-------|
----------------------------|--------2L-2--------2-------|
--------0L-0--------0-------|--0L-0--------0L-0----------|
----------------------------|----------------------------|
--3L-3--------3-------------|----------------------------|


-----------0L-0L----0-------|--2h-3L-3--0L-0-------------|
--0--0--3-------------------|-----------------3L-3-------|
----------------------------|--------2L-2--------2-------|
--------0L-0--------0-------|--0L-0--------0L-0----------|
----------------------------|----------------------------|
--3L-3--------3-------------|----------------------------|


--3-----2--0L-0-------------|--0L----0L-0L-0--0--2s-3----|
-----------------3L-3-------|-----------2----------------|
----------------------------|----------------------------|
--------0-----------0-------|--------2-----------2-------|
----------------------------|--0-----------0-------------|
--3-----------3-------------|----------------------------|


-----------------------0---||--0-------------------------|-----------5----|
-----------2--------3------||-----------------3--2L------|--2-------------|
-----------------0--------o||-----------0----------------|----------------|
--------2-----------------o||--------2-----------2L------|--2-------------|
--0-----------0------------||--0-----------0-------------|--0-------------|
---------------------------||----------------------------|----------------|


--5L----5--2L-2--2L-2-------|--3-----2L-2L-2L----2-------|
----------------------------|-----------3L-3L----3-------|
--------2L-2--------2-------|----------------------------|
--0-----------0L-0----------|--------0L-0--------0-------|
----------------------------|----------------------------|
----------------------------|--3-----------3-------------|


--5-----3--2L-2--5L-5-------|--3-----2L-2L-2L----2-------|
----------------------------|-----------3L-3L----3-------|
--------2L-2--------2-------|----------------------------|
--0-----------0L-0----------|--------0L-0--------0-------|
----------------------------|----------------------------|
----------------------------|--3-----------3-------------|


--5-----3--2L-2--5L-5-------|--3--2-----0----------------|
----------------------------|-----------------3----------|
--------2L-2--------2-------|----------------------------|
--0-----------0L-0----------|--------2-----------2-------|
----------------------------|--------------2-------------|
----------------------------|--0-------------------------|

^
--0--------------0--2-------|--5-----------------5--5----|
----------------------------|--2-------------------------|
-----------0----------------|--2-------------------------|
--------2-------------------|--2-------------------------|
--0-----------0-------------|----------------------------|
----------------------------|----------------------------|


--5L----5-------------------|--7L----7-------------------|
-----------7L-7L-7----------|--------10-8L-8--10L10------|
----------------------------|----------------------------|
--------7L-7--------7-------|--------9L-9--------9-------|
--5-----------5L-5----------|--10----------10L10---------|
----------------------------|----------------------------|


--------5--------5----------|--3-----2--0----------------|
-----------7----------------|-----------------3L-3-------|
----------------------------|----------------------------|
--------7L-7--------7-------|--------0-----------0-------|
--5-----------5L-5----------|----------------------------|
----------------------------|--3-----------3-------------|


-----------------2h-3-------|--2--------0----------------|
-----------3----------------|-----------------3----------|
--------2-----------2-------|--------2-----------2-------|
--0-----------0-------------|--0-----------0-------------|
----------------------------|----------------------------|
----------------------------|----------------------------|

^
--0-------------------------|-------|--2----||
-----------------3L-3-------|--2----|--3----||
-----------0----------------|-------|--2----||
--------2-----------2-------|--2----|--0----||
--0-----------0-------------|-------|-------||
----------------------------|-------|-------||



v pdf:
https://www.dropbox.com/s/w5bvzz6g7u08gih/
Smol%C3%ADk%2C%20Jakub%20-%20Leaving%20On%20A%20Jet%20Plane.pdf

 
»
Tvoje obľúbené položky
Tvoje obľúbené položky
»
Najnovšie videá
Najnovšie videá

»
Tvoje obľúbené piesne
Tvoje obľúbené piesne
»
Najnavštevovanejšie piesne
Najnavštevovanejšie piesne
Říkej mi táto - akordy a text

Haleluja - akordy a text

Haleluja - text

Haleluja - akordy a text

Až se ti jednou bude zdát - akordy a text

Jen blázen žárlí - akordy a text

Návrát - akordy a text

Popelky - akordy a text

Až mě andělé - akordy a text

Nejsi má - akordy a text

Haleluja - taby

Blázen žárlí - akordy a text

Sen kovbojů - text

Pán Bůh řekl vraťte se - akordy a text

Blázen žárlí - text

Jen blázen žárlí - taby

Holka s bílou halenou - text

Stýskání - text

Tichá noc 1864 - text

Ještě nechoď spát - text

viac

»
Nové albumy interpreta
Nové albumy interpreta



home | interpreti | register piesní | cd & dvd shop | pripomienky/nápady | kontakt | ochrana údajov | inzercia