Beatles


piesne (757)

  texty (255)
  akordy (219)
  taby (80)
  preklady (255)


články (709)
Fotky (37)
diskusia
videá
diskografia
v obchode
odkazy
koncerty
sťahuj



pridaj vlastný článok

Beatles:
Alkohol a drogy vám nakonec úplně vynulují emoce, říká Ringo Starr - S Beatles začal Ringo Starr (80) hrát roku 1962, pak rozjel vlastní kariéru a dodnes ... - idnes.cz


Beatles:
Mezi McCartneym a Starrem to pořád jiskří - Za magické a kouzelné označil Paul McCartney hraní se svým bývalým parťákem ze ...


Beatles:
Vinyly a cédéčka Beatles se pořád dobře prodávají - Navzdory velké popularitě nákupu nahrávek v digitální formě dosahují někteří ...


Beatles:
Ringo Starr slavil osmdesátku, popřál „peace“ a na videu působí jako
mladík
- Bývalý bubeník Beatles Ringo Starr oslavil v úterý v americkém Beverly Hills osmd...


Beatles:
Queen ozdobí britské známky. Jako třetí kapela po Beatles a Pink Floyd - Britská pošta brzy vydá sérii třinácti známek zachycující přebaly nejpopulárn...


Beatles:
TOP 8 | Písně o lynčování i rovnoprávnosti zpívali Michael Jackson,
Beatles, Billie Holiday a další
- Vražda George Floyda rozpoutala další vlnu protestů proti rasismu, s nímž se Amerik...


Beatles:
Paul McCartney slaví 78. narozeniny: Legendární Brouk zavzpomínal na svou
první zkušenost s LSD
- Zpěvák a kytarista Paul McCartney sfoukne letos už 78 svíček na dortu. Zamlad...


Amber Rose:
15 známych osobností s rockovo-metalovým tetovaním - 15 známych osobností s rockovo-metalovým tetovaním Tetovanie je jedným z najvýstre... - rocker.sk


ALWAYS:
TOP 8 | Když zazní hlas Chrise Cornella. Coververze od animáku po vlastní
epitaf
- Vydáno včera | autor: Ondřej Horák Hlas Chrise Cornella patřil mezi ty nejsil... - ireport.cz


Beatles:
Legendárni Beatles-áci v smútku: Zomrela žena, ktorej vďačia za slávu - Skupina Beatles - zľava Ringo Starr, John Lennon, Paul McCartney a George Harriso... - topky.sk


 

Beatles

Fanúšikov: 8



A B C Č D E F G H CH I J K L Ľ M N O P Q R S Š T U V W X Y Z Ž



ako:
Beatles - Yesterday - jednoduche
Beatles - Yesterday - jednoduche

tlač

edituj
Pesničku videlo 22150 návštevníkov.

Kvalita tabov :
Hodnotilo ľudí: 3 ohodnoť aj ty
 
Tiez len jednoducha melodia...

-------------------0--1-0--------------------------------------------
-----------0--2-3---------3-3---3-3-1--------------------------------
-0-------2----------------------------3-2-0--3-2-2--0--2-0-----2-2---
----3-3-----------------------------------------------3----0-3-------
---------------------------------------------------------------------
---------------------------------------------------------------------


---------0-1-0---0-----------------0-1-0---0-----0-1-----------------
-------3-------3---3-1-3---------3-------3---3-1-----1---------------
--2-2--------------------2---2-2-----------------------2-------------
---------------------------------------------------------3-----------
---------------------------------------------------------------------
---------------------------------------------------------------------











 
»
Tvoje obľúbené položky
Tvoje obľúbené položky
»
Najnovšie videá
Najnovšie videá

»
Tvoje obľúbené piesne
Tvoje obľúbené piesne
»
Najnavštevovanejšie piesne
Najnavštevovanejšie piesne
Yesterday - akordy a text

Let It Be - akordy a text

Hey Jude - akordy a text

Help! - akordy a text

Yellow Submarine - akordy a text

Eight Days a Week - akordy a text

Here comes the sun - akordy a text

Let It Be - akordy a text

Yesterday (100% Presne) - akordy a text

Here Comes The Sun (lépe) - akordy

She Loves You - akordy a text

A Hard Day's Night - akordy a text

Yesterday - akordy a text

Ob-La-Di Ob-La-Da - akordy a text

Girl - akordy a text

If I Fell - akordy a text

Lucy In The Sky With Diamonds - akordy

If I Fell - akordy

When I Get Home - text

All My Loving - akordy a text

viac

»
Nové albumy interpreta
Nové albumy interpreta



home | interpreti | register piesní | cd & dvd shop | pripomienky/nápady | kontakt | ochrana údajov | inzercia