Kamelot


piesne (239)

  texty (220)
  akordy (203)
  taby (7)
  preklady (1)


články (82)
Fotky (7)
diskusia
videá
diskografia
v obchode
odkazy
koncerty
sťahuj



pridaj vlastný článok

Ilona Csáková:
Do této písně jsme vložili naše srdce a nevymyté mozky: Ilona Csáková
brojí proti zneužívání covidu mocnými
- Ilona Csáková (50) a Roman Horký z kapely Kamelot na... - super.cz


Roman Horký:
Roman Horký bojuje proti virovému šílenství koncertem v údolí Oslavy - Nedohraný koncert. Tak se jmenuje akce, kterou pořádá folkař a lídr kapely Kamelot... - novinky.cz


Roman Horký:
Kamelot na Musilce - folktime.cz


Roman Horký:
Nové CD brněnského Kamelotu dokončoval mistr z Abbey Road - ceskenoviny.cz


Kamelot:
Kamelot představuje první klip z nového alba. "Nezapomeň na mě" pohltí
svou atmosférou
- musicserver.cz


Kamelot:
Kamelot udělal záznamem z koncertu v Mahenově divadle důstojnou tečku za
jubilejní sezónou
- musicserver.cz


Kamelot:
KAMELOT (US) mají nový klip, díky kterému vypnete - spark-rockmagazine.cz


Kamelot:
Jeseň v Bratislave bude patriť metalistom: Kamelot, Delain, Amaranthe, Amon
Amarth aj Never Say Die tour!
- livemusic.sk


Bratři Ebenové:
Žánrové ceny Anděl 2015 rozdány, v kategorii Folk & country zvítězila
Epydemye!
- folktime.cz


Roman Horký:
Kamelot pokrstili novinku Babí léto - Warner Music


 

Kamelot

Fanúšikov: 6



A B C Č D E F G H CH I J K L Ľ M N O P Q R S Š T U V W X Y Z Ž



ako:
Kamelot - Cikáni - sólo
Kamelot - Cikáni - sólo

tlač

edituj
Poznámka: zo stránky trikyatipy.wz.cz

Pesničku videlo 11101 návštevníkov.

Kvalita tabov : bez hodnotenia
Hodnotilo ľudí: 0 ohodnoť aj ty
  *** Autor textu: Roman Horký *** Autor hudby: Roman Horký

Key - Dm

E|-5h6-5------------|---5-6-8-6-5-----|----------------|-----------------|
H|-------6----------|-------------8-6-|-5-6-8-5--------|---5-6-8-6-5-----|
G|---------7--------|-----------------|----------------|-------------7-5-|
D|------------------|-----------------|----------------|-----------------|
A|------------------|-----------------|----------------|-----------------|
E|---*---*---*---*--|-*---*---*---*---|-*---*---*---*--|-*---*---*---*---|


|-----------------|---------------5-|-6-8/10-8-10/12-10-12-|-10-12-10-12-~-~-~-~-|
|-----------------|-----------5-6---|----------------------|---------------------|
|-7-5-------------|-------5-7-------|----------------------|---------------------|
|-----8-7-5-------|---5-7-----------|----------------------|---------------------|
|-----------8-7-5-|-8---------------|----------------------|---------------------|
|-*---*---*---*---|-*---*---*---*---|-*---*----*-----*-----|-*-----*-----*---*---|


|-13-^-^-^-^-^-^-^-|-13-^-^-^-15-^-13-^-|-12-^-^-^-^-^-^-^-|-12-^-^-^-13-^-12-^-|
|-15-^-^-^-^-^-^-^-|-15-^-^-^-17-^-15-^-|-13-^-^-^-^-^-^-^-|-13-^-^-^-15-^-13-^-|
|------------------|--------------------|------------------|--------------------|
|------------------|--------------------|------------------|--------------------|
|------------------|--------------------|------------------|--------------------|
|-*----*---*---*---|-*----*---*----*----|-*----*---*---*---|-*----*---*----*----|


|-10-^-^-^-^-^-^-^-|-10-^-^-^-12-^-10-^-|-9--^-9--9---9-9---|-5-5---3---1-0---||
|-11-^-^-^-^-^-^-^-|-11-^-^-^-13-^-11-^-|-10-^-10-8---8-8---|-2-2-0-2-----2---||
|------------------|--------------------|---------9---9-9---|-----------------||
|------------------|--------------------|-------------------|-----------------||
|------------------|--------------------|-------------------|-----------------||
|-*----*---*---*---|-*----*---*----*----|-*----*----*---*---|-*-------*-------||

 
»
Tvoje obľúbené položky
Tvoje obľúbené položky
»
Najnovšie videá
Najnovšie videá

»
Tvoje obľúbené piesne
Tvoje obľúbené piesne
»
Najnavštevovanejšie piesne
Najnavštevovanejšie piesne
Čas rozchodů - akordy a text

Zachraňte koně - akordy a text

Anděl - akordy

Zpátky o pár let - akordy a text

Slib - akordy a text

Ahoj Peggy - akordy a text

Nashville - akordy a text

Paměť slonů - akordy a text

Psáno na březové kůře - akordy a text

Země antilop - akordy a text

Proti proudu - akordy a text

Zrození hvězd - akordy a text

Ja zas jak dřiv - akordy a text

Tahle země není pro starý - akordy a text

Zrozeni hvezd akustic - akordy a text

Dík, pane Foglar - akordy a text

Vzpomínka na kamaráda - akordy a text

Setři si slzy - akordy a text

Léto - akordy a text

Dobří holubi se vracejí (správně) - akordy a text

viac

»
Nové albumy interpreta
Nové albumy interpreta



home | interpreti | register piesní | cd & dvd shop | pripomienky/nápady | kontakt | ochrana údajov | inzercia