Whiskeytown


piesne (1)

  texty (0)
  akordy (0)
  taby (1)
  preklady (0)


články (0)
Fotky (0)
diskusia
videá
diskografia
v obchode
odkazy
koncerty
sťahuj



pridaj vlastný článok




 

Whiskeytown

Fanúšikov: 0



A B C Č D E F G H CH I J K L Ľ M N O P Q R S Š T U V W X Y Z Ž



ako:
Whiskeytown - Inn Town
Whiskeytown - Inn Town

tlač

edituj
Pesničku videlo 1889 návštevníkov.

Kvalita tabov : bez hodnotenia
Hodnotilo ľudí: 0 ohodnoť aj ty

Intro:

e/------------------------------------------------------------------------/
B/------------3--------3--------3---------3---------3---------------------/
G/---0h2-------2-----0h2---------2-----0h2---------2----------------/
D/---------0-----------------0-------------------0-----------------------/
A/----------------------------------------------------------------------/
E/----------------------------------------------------------------------/

Followed by Fill A:

/-----------------------------------------------/
/----------------------------------------------/
/-----------------------------0-----------------/
/---------------0---0h2---------0------------------------/
/--2---0h2---------------------------------------/
/--3--------------------------------------------/

Do the whole sequence twice; the third time is a bit different:

/------------------------------------------------------3------2-----3-----------
/--------------3--------------3---------3-------3-------------------------------
/---0h2----------2---2------0h2---------2---------------------------------------
/----------0-------------------------0------------------------------------------
/-------------------------------------------------------------------------------
/-------------------------------------------------------------------------------

Followed by Fill A

Verses:
D G Fill A
Parking Lot, Movie screen, I can't feel anything
D G Fill A
Cigarette, beat up TV, I can't feel anything

The rest is as posted by Rick, this is just to solidify the intro.


 
»
Tvoje obľúbené položky
Tvoje obľúbené položky
»
Najnovšie videá
Najnovšie videá

»
Tvoje obľúbené piesne
Tvoje obľúbené piesne
»
Najnavštevovanejšie piesne
Najnavštevovanejšie piesne
Inn Town - taby

»
Nové albumy interpreta
Nové albumy interpreta



home | interpreti | register piesní | cd & dvd shop | pripomienky/nápady | kontakt | ochrana údajov | inzercia