Rage Against The Machine


piesne (180)

  texty (51)
  akordy (1)
  taby (82)
  preklady (39)


články (25)
Fotky (47)
diskusia
videá
diskografia
v obchode
odkazy
koncerty
sťahuj



pridaj vlastný článok

Rage Against The Machine:
Rage Against the Machine v září nepřijedou - Americká kapela Rage Against the Machine v Praze v září nevystoupí. Pořadatelé o... - novinky.cz


Rage Against The Machine:
Rage Against the Machine zavítají v rámci svého reunionu do pražské O2
areny
- čtvrtek, 27 únor 2020 12:00 Napsal(a) Robert Brtník Tisk Email Buďte první, kdo n... - musicweb.cz


Rage Against The Machine:
Rage Against the Machine jedou k nám - 11. 2. 2020 | Standa Rubáš zpět na výpis A nejen k nám. Kapela oznámila sedmiměs... - radiobeat.cz


Rage Against The Machine:
Návrat na pódia. Rage Against The Machine se valí i do Česka - 12.2.2020 Bude to jedna z hudebních událostí roku. Americká čtveřice, jejíž styl... - denik.cz


Rage Against The Machine:
Potvrzeno. Rage Against the Machine budou v Praze - Dnes 9:42Stanislav Dvořák, Novinky Facebook Twitte r Co před pár lety vypadalo jako... - novinky.cz


Rage Against The Machine:
Rage Against The Machine se dávají dohromady na pár koncertů - musicserver.cz


Rage Against The Machine:
Rockeři proti Nigelu Farageovi. Kapele vadí název politikova rozhlasového
pořadu
- lidovky.cz


Public Enemy:
Rockeři z Public Enemy či Rage Against The Machine sestavili kapelu,
protestují proti Trumpovi i rasismu
- ihned.cz


Rage Against The Machine:
Rage Against The Machine neplánujú návrat na scénu - zoznam.sk


Rage Against The Machine:
Rage Against The Machine se na podzim připomenou živákem - musicserver.cz


 

Rage Against The Machine

Fanúšikov: 0



A B C Č D E F G H CH I J K L Ľ M N O P Q R S Š T U V W X Y Z Ž



ako:
Rage Against The Machine - Bombtrack(2)
Rage Against The Machine - Bombtrack(2)

tlač

edituj
V originále: --------------
Poznámka: -----------------

Pesničku videlo 2107 návštevníkov.

Kvalita tabov : bez hodnotenia
Hodnotilo ľudí: 0 ohodnoť aj ty
  *** Autor textu: ------------ *** Autor hudby: -------------

Bombtrack

By: Verse/Chorus/Solo by Tub Ring 2, thanks to many other people for little corrections and additions, especially the last part
of the solo.

Intro (palm muted):
|---------------------------------------------------------------|
|---------------------------------------------------------------|
|-----------------------------0---------------------------------|
|---2-0---0---------2-0---0-2-----2-0---0---------2-0---0-------|
|-------2---2-0---------2-------------2---2-0---------2---2-----|
|-0-------------3-0-------------0-------------3-0-----------3-2-|


Chorus and before verse:
|--------------------------------------|
|--------------------------------------|
|--------------------------------6-5-4-|
|-----4---------4-2-----4--------6-5-4-|
|--------------------------------4-3-2-|
|-0-2---0-2-0-2-----0-2---0-2-0--4-3-2-|


Verse:
|-----------------------------------------|
|-----------------------------------------|
|-----------------------------------------|
|-----------------------------4-2---------|
|---------------------------------4-3-2---|
|-2-2-0-2-2-2-2-5b6-2-2-0-2-0-----------5-|


Solo:
|-------------------------------------------------12-12-12-12-12-12-|
|-------------------------------------------------12-12-12-12-12-12-|
|--------------------------------------------------9--9--9--9--9--9-|
|---------------------------------9-9-9-9-9-9-9-9-------------------|
|---------------------------------7-7-7-7-7-7-7-7-------------------|
|-0-0-0-0-0-0-0-0-0-0-0-0-0-0-0-0-0-0-0-0-0-0-0-0-------------------|

|---------------------X-X-X-X-------------------------------|
|---------------------X-X-X-X-------------------------------| x2
|---------------------X-X-X-X-------------------------------|
|---------------------X-X-X-X-------------------------------|
|---------------------X-X-X-X-------------------4p0-3p0-2p0-|
|-2-0-2-0-5-2-0-2-0-2-X-X-X-X-2-0-2-0-5-2-0-2-0-------------|

|----------------------------------------------------------|
|-------------------------------------14-17b19-19-19-19r17-|
|--x-14--x-16--x-14--x-16--x-14--x-16----------------------|
|--x-14--x-16--x-14--x-16--x-14--x-16----------------------|
|----------------------------------------------------------|
|----------------------------------------------------------|

|-------------------------x/-14-17-16-17-16b17r16-|
|-------------------------------------------------|
|--x-14--x-16--x-14--x-16-------------------------|
|--x-14--x-16--x-14--x-16-------------------------|
|-------------------------------------------------|
|-------------------------------------------------|

Play the chorus again and then:

|---------------------------------------|
|----17----17----17----17----17----17b5-|
|-16b18-16b18-16b18-16b18-16b18-16b18b4-|
|---------------------------------------|
|---------------------------------------|
|---------------------------------------|

|-------------------------------|
|-------------------------------| x2
|-x/x/x/x/x/x/x\x\x\x\x\x\\x\x\-|
|-------------------------------|
|-------------------------------|
|-------------------------------|
slide finger up and down 3rd string while switching toggle switch
(rythm-0, lead-10)
|-------------------------------------------------------------------------------|
|-------------------------------------14-14-14----------------------------------|
|-14-14-14-16-14-14-14-16-14-14-14-16-14-14-14----14-14----14-14-14-------6-5-4-|
|----------16----------16----------16----------16-------16----------------6-5-4-|
|-------------------------------------------------------------------------4-3-2-|
|-------------------------------------------------------------------2-4-0-4-3-2-|

Final chords:
|-------|
|-------|
|-4-3-2-|
|-4-3-2-|
|-2-1-0-|
|-2-1-0-|


 
»
Tvoje obľúbené položky
Tvoje obľúbené položky
»
Najnovšie videá
Najnovšie videá

»
Tvoje obľúbené piesne
Tvoje obľúbené piesne
»
Najnavštevovanejšie piesne
Najnavštevovanejšie piesne
»
Nové albumy interpreta
Nové albumy interpreta



home | interpreti | register piesní | cd & dvd shop | pripomienky/nápady | kontakt | ochrana údajov | inzercia