Rage Against The Machine


piesne (180)

  texty (51)
  akordy (1)
  taby (82)
  preklady (39)


články (25)
Fotky (47)
diskusia
videá
diskografia
v obchode
odkazy
koncerty
sťahuj



pridaj vlastný článok

Tom Morello:
RECENZE: Tom Morello na novém EP hraje Hendrixe a vzpomíná i na Eddieho Van
Halena
- Vstupenky na očekávané vystoupení Rage Against The Machine, původně plánované na ... - IREPORT


Rage Against The Machine:
Rage Against the Machine v září nepřijedou - Americká kapela Rage Against the Machine v Praze v září nevystoupí. Pořadatelé o... - novinky.cz


Rage Against The Machine:
Rage Against the Machine zavítají v rámci svého reunionu do pražské O2
areny
- čtvrtek, 27 únor 2020 12:00 Napsal(a) Robert Brtník Tisk Email Buďte první, kdo n... - musicweb.cz


Rage Against The Machine:
Rage Against the Machine jedou k nám - 11. 2. 2020 | Standa Rubáš zpět na výpis A nejen k nám. Kapela oznámila sedmiměs... - radiobeat.cz


Rage Against The Machine:
Návrat na pódia. Rage Against The Machine se valí i do Česka - 12.2.2020 Bude to jedna z hudebních událostí roku. Americká čtveřice, jejíž styl... - denik.cz


Rage Against The Machine:
Potvrzeno. Rage Against the Machine budou v Praze - Dnes 9:42Stanislav Dvořák, Novinky Facebook Twitte r Co před pár lety vypadalo jako... - novinky.cz


Rage Against The Machine:
Rage Against The Machine se dávají dohromady na pár koncertů - musicserver.cz


Rage Against The Machine:
Rockeři proti Nigelu Farageovi. Kapele vadí název politikova rozhlasového
pořadu
- lidovky.cz


Public Enemy:
Rockeři z Public Enemy či Rage Against The Machine sestavili kapelu,
protestují proti Trumpovi i rasismu
- ihned.cz


Rage Against The Machine:
Rage Against The Machine neplánujú návrat na scénu - zoznam.sk


 

Rage Against The Machine

Fanúšikov: 0



A B C Č D E F G H CH I J K L Ľ M N O P Q R S Š T U V W X Y Z Ž



ako:
Rage Against The Machine - Testify(2)
Rage Against The Machine - Testify(2)

tlač

edituj
Rok vzniku: 2006
V originále: R.A.T.M.
Poznámka: Album: The Battle Of L.A.

Pesničku videlo 1792 návštevníkov.

Kvalita tabov : bez hodnotenia
Hodnotilo ľudí: 0 ohodnoť aj ty
  *** Autor textu: R.A.T.M. *** Autor hudby: R.A.T.M.

testify
by: rage against the machine
transcribed by jeff johnson

standard tuning

intro

oscillate wah-wah up/down slowly while strumming this
|---------------------------------|
|----0---repeated-----------------|
|----0----------------------------|
|---------------------------------|
|---------------------------------|
|---------------------------------|

chorus
|---------------------------------|
|---------------------------------|
|---------------------------------|
|---------------------------------|
|---------3---5-----3-------------|
|-0-3-5-0---0---3-0---5-----------|

|---------------------------------|
|---------------------------------|
|---------------------------------|
|---------------------------------|
|------------3---5-----3----------|
|-0-3-5-0-0----0---3-0------------|

beginning of solo
|---------------------------------|
|---------------------------------|
|---------------------------------|
|----11-xx--(repeated)------------|
|---------------------------------|
|---------------------------------|

solo
tom pulls the plug out and touches it too the metal part of his guitar.
he also uses his wah-wah pedal and osciallates it according the solo.


outro
|---------------------------------|
|---------------------------------|
|---------------------------------|
|---------------------------------|
|--8--(4x)------------------------|
|--6------------------------------|

 
»
Tvoje obľúbené položky
Tvoje obľúbené položky
»
Najnovšie videá
Najnovšie videá

»
Tvoje obľúbené piesne
Tvoje obľúbené piesne
»
Najnavštevovanejšie piesne
Najnavštevovanejšie piesne
»
Nové albumy interpreta
Nové albumy interpreta



home | interpreti | register piesní | cd & dvd shop | pripomienky/nápady | kontakt | ochrana údajov | inzercia