Rage Against The Machine


piesne (180)

  texty (51)
  akordy (1)
  taby (82)
  preklady (39)


články (25)
Fotky (47)
diskusia
videá
diskografia
v obchode
odkazy
koncerty
sťahuj



pridaj vlastný článok

Tom Morello:
RECENZE: Tom Morello na novém EP hraje Hendrixe a vzpomíná i na Eddieho Van
Halena
- Vstupenky na očekávané vystoupení Rage Against The Machine, původně plánované na ... - IREPORT


Rage Against The Machine:
Rage Against the Machine v září nepřijedou - Americká kapela Rage Against the Machine v Praze v září nevystoupí. Pořadatelé o... - novinky.cz


Rage Against The Machine:
Rage Against the Machine zavítají v rámci svého reunionu do pražské O2
areny
- čtvrtek, 27 únor 2020 12:00 Napsal(a) Robert Brtník Tisk Email Buďte první, kdo n... - musicweb.cz


Rage Against The Machine:
Rage Against the Machine jedou k nám - 11. 2. 2020 | Standa Rubáš zpět na výpis A nejen k nám. Kapela oznámila sedmiměs... - radiobeat.cz


Rage Against The Machine:
Návrat na pódia. Rage Against The Machine se valí i do Česka - 12.2.2020 Bude to jedna z hudebních událostí roku. Americká čtveřice, jejíž styl... - denik.cz


Rage Against The Machine:
Potvrzeno. Rage Against the Machine budou v Praze - Dnes 9:42Stanislav Dvořák, Novinky Facebook Twitte r Co před pár lety vypadalo jako... - novinky.cz


Rage Against The Machine:
Rage Against The Machine se dávají dohromady na pár koncertů - musicserver.cz


Rage Against The Machine:
Rockeři proti Nigelu Farageovi. Kapele vadí název politikova rozhlasového
pořadu
- lidovky.cz


Public Enemy:
Rockeři z Public Enemy či Rage Against The Machine sestavili kapelu,
protestují proti Trumpovi i rasismu
- ihned.cz


Rage Against The Machine:
Rage Against The Machine neplánujú návrat na scénu - zoznam.sk


 

Rage Against The Machine

Fanúšikov: 0



A B C Č D E F G H CH I J K L Ľ M N O P Q R S Š T U V W X Y Z Ž



ako:
Rage Against The Machine - Maggie's Farm
Rage Against The Machine - Maggie's Farm

tlač

edituj
V originále: ?
Poznámka: Album: Renegades

Pesničku videlo 2405 návštevníkov.

Kvalita tabov : bez hodnotenia
Hodnotilo ľudí: 0 ohodnoť aj ty
  *** Autor textu: R.A.T.M. *** Autor hudby: R.A.T.M.

Rage Against the Machine
Maggie's Farm

Album: Renegades
Tablature: Guitar
Source: unknown
Transcribed By: Dave

--------------------------------------------------------------------------------

Drop D (DADGBE). Whammy set to drop tune.

These are all the main riffs to the song. Listen to it to figure out where and how many times they repeat.


Intro (play this twice)
-|-14----14----14----14----12----12----12----12-------------------------------
-|----14----14----14----14----14----14----14----14----------------------------
-|----------------------------------------------------------------------------
-|----------------------------------------------------------------------------
-|----------------------------------------------------------------------------
-|----------------------------------------------------------------------------

Main riff
-|----------------------------------------------------------------------------
-|----------------------------------------------------------------------------
-|----------------------------------------------------------------------------
-|-------------------------------------------3--------------------------------
-|---------------------------------------3h5---5p3----------------------------
-|-\-0-0-3b0-0-0--0-3-0--5--0-0-3b0-0-0------------5p3------------------------

Verse riff (palm muted)
-|----------------------------------------------------------------------------
-|----------------------------------------------------------------------------
-|----------------------------------------------------------------------------
-|----------------------------------------------------------------------------
-|----------------------------------------------------------------------------
-|-0-0-3b0-0-0--0-3-0--5--0-0-3b0-0-0-----------------------------------------

Another verse riff
-|----------------------------------------------------------------------------
-|----------------------------------------------------------------------------
-|----------------------------------------------------------------------------
-|-----7------5---------------------------------------------------------------
-|-----5------5---------------------------------------------------------------
-|-0-0----0-0-----------------------------------------------------------------

Another verse riff
-|----------------------------------------------------------------------------
-|----------------------------------------------------------------------------
-|----------------------------------------------------------------------------
-|----------------------------------------------------------------------------
-|----------------------------------------------------------------------------
-|-0-0-x-x-0-x-x-0-x-x-x-x----------------------------------------------------

Bridge part 1
-|----------------------------------------------------------------------------
-|----------------------------------------------------------------------------
-|----------------------------------------------------------------------------
-|----------------------------------------------------------------------------
-|-10-10-10-10-10-10-10-10-\-5-5-5-5-5-5-5-5----------------------------------
-|-10-10-10-10-10-10-10-10-\-5-5-5-5-5-5-5-5--0-0-x-x-0-x-x-0-x-x-x-x---------

Bridge part 2
-|----------------------------------------------------------------------------
-|----------------------------------------------------------------------------
-|----------------------------------------------------------------------------
-|----------------------------------------------------------------------------
-|-10-10-10-10-10-10-10-10-\-5-5-5-5-5-5-5-5--0-------------------------------
-|-10-10-10-10-10-10-10-10-\-5-5-5-5-5-5-5-5--0-------------------------------


Solo - haven't figured it out yet.



 
»
Tvoje obľúbené položky
Tvoje obľúbené položky
»
Najnovšie videá
Najnovšie videá

»
Tvoje obľúbené piesne
Tvoje obľúbené piesne
»
Najnavštevovanejšie piesne
Najnavštevovanejšie piesne
»
Nové albumy interpreta
Nové albumy interpreta



home | interpreti | register piesní | cd & dvd shop | pripomienky/nápady | kontakt | ochrana údajov | inzercia