Eric Clapton


piesne (157)

  texty (99)
  akordy (70)
  taby (40)
  preklady (13)


články (158)
Fotky (6)
diskusia
videá
diskografia
v obchode
odkazy
koncerty
sťahuj



pridaj vlastný článok

Eric Clapton:
RECENZE: Eric Clapton vydal akustické lockdownové album - Deska The Lady In The Balcony s podtitulem Lockdown Sessions je výsledkem loňského lo... - novinky.cz


Jeff Beck:
Zakk Wylde je zpět u Ozzyho Osbourna. Kytarové party natáčí na celou novou
desku Prince temnot
- O tom, že Ozzy Osbourne zlanařil na svou připravovanou sólovku kytarovou elitu, jsme ... - musicserver.cz


Jeff Beck:
Ozzy Osbourne chystá nové album, pracuje na něm s hvězdnými kytaristy
Beckem, Claptonem a dalšími
- Ozzy Osbourne aktuálně nahrává své nové sólové album a jak se nechal slyšet, pod... - IREPORT


Eric Clapton:
Eric Clapton má nový videoklip s Vanem Morrisonem - Eric Clapton a Van Morrison se spojili, aby vydali nový klip a novou verzi Claptonova ... - novinky.cz


Eric Clapton:
Eric Clapton připravil akustické album 'Lady In The Balcony: Lockdown
Sessions'
- Akustický živák "MTV Unplugged" se stal jednou z komerčně nejúspěšnějších dese... - musicserver.cz


Eric Clapton:
VIDEO: Frustrovaný Eric Clapton v singlu 'It Has Gotta Stop' křičí:
'Tohle musí skončit!'
- Eric Clapton na sebe nedávno upozornil prohlášením, že odmítá koncertovat na míst... - musicserver.cz


Joe Bonamassa:
Legendární setkání - Joe Bonamassa, Tommy Emmanuel, Josh Smith - Blues Alive
at sea
- To, že třeba za G3 stojí Joe Satriani, to, že kupříkladu za Crossroads Guitar Festi...


Chicago:
Legendární setkání - Sweet Home Chicago - Psal se rok 2007 a v Toyota Parku v Bridgeview v Illinois se uskutečnil již druhý roč...


Jeff Beck:
Legendární setkání - Eric Clapton + Jeff Beck + Jimmy Page - Dnešním číslem pokračujeme v sérii Legendární setkání, ve které se soustředí...


Jeff Beck:
Eric Clapton, Jeff Beck, Sheryl Crow či Buddy Guy na Crossroads - Crossroads Guitar Festival je projekt Erika Claptona, který zve pravidelně své slavné... - novinky.cz


 

Eric Clapton

Fanúšikov: 2



A B C Č D E F G H CH I J K L Ľ M N O P Q R S Š T U V W X Y Z Ž



ako:
Eric Clapton - All Your Love
Eric Clapton - All Your Love

tlač

edituj
Pesničku videlo 2877 návštevníkov.

Kvalita tabov : bez hodnotenia
Hodnotilo ľudí: 0 ohodnoť aj ty
Lead

E||------8b-----------------------|--------------------------------------|
B||--10-----------------------10b-|--------------10b---10b-10b-10--8-----|
G||-------------------------------|-----------------------------------9--|
D||-------------------------------|--------------------------------------|
A||-------------------------------|--------------------------------------|
E||-------------------------------|--------------------------------------|



-----------------------------|--10r----8-10------8b---------------|
--8~---------10--------------|-------------------8b-----10--10----|
-----------------------------|------------------------------------|
-----------------------------|------------------------------------|
-----------------------------|------------------------------------|
-----------------------------|------------------------------------|



--10b-----8b---------------8b-----|------------------------------|
-----------------10--10~----------|--------8b-----------8--5-----|
----------------------------------|---------------------------7--|
----------------------------------|------------------------------|
----------------------------------|------------------------------|
----------------------------------|------------------------------|



-----------------------------|---------------------------8----10--|
-----------------------------|---------10----8/9-10~--------------|
--5b------------------5\-----|------9-----------------------------|
--0-------------------0------|------------------------------------|
---------7~------------------|------------------------------------|
-----------------------------|------------------------------------|



--10p---8----------8b-----------|--20b-----20b-----------20--17--17--|
-----------10~------------------|--------------------------------17--|
--------------------------------|--------------------------------x---|
--------------------------------|------------------------------------|
--------------------------------|------------------------------------|
--------------------------------|------------------------------------|



--17~---------17------------------------------|
----------20b-----20--17------------------17--|
--------------------------19b-19--17--19------|
----------------------------------------------|
----------------------------------------------|
----------------------------------------------|



-----------------------------------||
-----------------------------------||
--17b------------------------------||
-----------------------------------||
-----------------------------------||
----------17\-----x/15-----12\-----||







Rythm




E||---------------------------------|---------------------------------|
B||---------------------------------|---------------------------------|
G||-------------------------2-------|-------------------------2-------|
D||---------------2--5------2----5--|---------------2--5------2----5--|
A||--0------3--4--------------------|--0------3/-4--------------------|
E||---------------------------------|---------------------------------|



--------------------------------|---------------------------------|
--------------------------------|---------------------------------|
------------------------2-------|-------------------------2-------|
--------------2--5-----------5--|---------------2--5------2----5--|
--0------3b------0--------------|--0------3/-4--------------------|
--------------------------------|---------------------------------|



----------------------------------|----------------------------------|
----------------------------------|----------------------------------|
----------------2--5b-----5----2--|---------------2--5b-----2-----2--|
--0----0--3/4---------------------|--0------3/4----------------4--2--|
----------------------------------|-------------------------------0--|
----------------------------------|----------------------------------|



---------------------------------|---------------------------------|
---------------------------------|---------------------------------|
-------------------------2-------|-------------------------2-------|
---------------2--5------2----5--|---------------2--5------2----5--|
--0------3/-4--------------------|--0------3/-4--------------------|
---------------------------------|---------------------------------|



---------------------------------|-----------------------------------|
---------------------------------|-----------------------------------|
---------------4--7b-----4-------|---------------2--5----5b-2-----2--|
--2------4/-5-----------------6--|--0------3/-4----------------4-----|
---------------------------------|-----------------------------------|
---------------------------------|-----------------------------------|



------------------------------------|-----------------------------||
------------------------------------|-----------------------------||
--2~-----0-----0--2--0--------------|--2--------------------------||
------------2-----------2--1--0-----|-----------------------------||
---------------------------------3b-|-----------------------------||
------------------------------------|-----------------------12\---||

 
»
Tvoje obľúbené položky
Tvoje obľúbené položky
»
Najnovšie videá
Najnovšie videá

»
Tvoje obľúbené piesne
Tvoje obľúbené piesne
»
Najnavštevovanejšie piesne
Najnavštevovanejšie piesne
Tears in Heaven - akordy a text

Tears In Heaven - akordy a text

Tears In Heaven Jednoduchy - akordy a text

Layla - preklad

River Of Tears - preklad

I Shot The Sheriff - akordy a text

Tears In Heaven - akordy

Tears In Heaven (original) - text

Tears In Heaven - taby

Wonderful Tonight - akordy a text

Wonderful Tonight - Noty

Tears In Heaven - preklad

Tears In Heaven - Intro - taby

Wonderful Tonight - preklad

Old Love (Dávna láska) - preklad

Lay Down Sally - akordy a text

Bell Bottom Blues - akordy a text

Someone Like You - akordy a text

Promises - akordy a text

Alberta - akordy

viac

»
Nové albumy interpreta
Nové albumy interpreta



home | interpreti | register piesní | cd & dvd shop | pripomienky/nápady | kontakt | ochrana údajov | inzercia