Aya


piesne (99)

  texty (80)
  akordy (35)
  taby (8)
  preklady (2)


články (56)
Fotky (23)
diskusia
videá
diskografia
v obchode
odkazy
koncerty
sťahuj



pridaj vlastný článok

Amphibios:
Predstavujeme hudobný objav, skupinu FREYA - RÁDIO KOŠICE, Včera | 10:30 Hudobná formácia predstavuje svoju autorskú prvotinu "... - radiokosice.sk


Aya:
AYA poprvé v Lucerně - 13.02.2020 - 09:41 Rozhovory Autor: Ivan Rössler AYA ze Žiliny se na Koncert legend pr... - muzimax.cz


Aya:
Pražská Lucerna privíta obnovený Československý beat festival - RÁDIO KOŠICE, 07.02.2020 | 17:52 Stane sa tak 28. marca a opäť vystúpia legendy če... - radiokosice.sk


Aya:
Československý beat-festival po 50 letech - muzimax.cz


Aya:
AYA pripravuje Rockové Vianoce a mieri do Lucerny - music-zone.eu


Aya:
Na koncert legend míří skupina AYA - radiobeat.cz


Aya:
Aya sa stala víťazom Československého beatového festivalu - zoznam.sk


Aya:
AYA chce naplnit haly a stadiony - muzimax.cz


Aya:
AYA: Všetko čo v tejto brandži robíme je o spolupráci


Aya:
Mario Maryša Tománek zo skupiny AYA: Už sme nechceli byť živé magneťáky - aktuality.sk


 

Aya

Fanúšikov: 1



A B C Č D E F G H CH I J K L Ľ M N O P Q R S Š T U V W X Y Z Ž



ako:
Aya - Malý princ
Aya - Malý princ

tlač

edituj
Pesničku videlo 6609 návštevníkov.

Kvalita tabov :
Hodnotilo ľudí: 3 ohodnoť aj ty
intro[akusticka gitara/elektricka na clean]:
E|------3/5-4-------------------------------------------------------
H|----5-------7-5----------5/7-5-----------5/7-5--------------------
G|--6-------------6----6-6-------7-6---7-7-------7-6-----4/6-4-2~~~-
D|-----------------------------------7---------------7-7------------
A|------------------------------------------------------------------
E|------------------------------------------------------------------

v pesnicke su hrane barove akordy A, F, G, Hmi, C, F#mi

A A F G
E|---------6-------------------6------------------1-----------------3------
H|-------5---5---------------5---5--------------1---1-------------3---3----
G|-----6-------6-----------6-------6----------2-------2---------4-------4--
D|---7-----------7-------7-----------7------3-----------3-----5----------5-
A|-----------------7-------------------7--------------------5-------------5
E|-5-------------------5------------------1--------------1-----------------

na konci prvej slohy a prveho refrenu sa hra toto:

E|---------5---------------5--------------1----------3-3-3---
H|-------5---5-----------5---5----------1---1--------3-3-3---
G|-----6-------6-------6-------6------2-------2------4-4-4---
D|---7-----------7---7--------------3-----------3----5-5-5---
A|---------------------------------------------------5-5-5---
E|-5---------------5--------------1----------------3---------

refren(opat barre akordy):

C C A A
E|---------5----------------5----------------5---------------5-------
H|-------7---7------------7---7------------5---5-----------5---5-----
G|-----7-------7--------7-------7--------6-------6-------6-------6---
D|---7-----------7----7-----------7----7-----------7---7-----------7-
A|-5---------------5-------------------------------------------------
E|-----------------------------------5---------------5---------------
maly princ ...

F#mi F#mi Hmi C A
E|---------2---------------2----------------4---------------------------
H|-------2---2-----------2---2------------5---5------------7------------
G|-----2-------2-------2-------2--------6-------6------------7----6-----
D|---4-----------4---4-----------4----6-----------6------7----------7---
A|----------------------------------4---------------4--5--------------7-
E|-2---------------2--------------------------------------------5-------


E|---------5---------------5--------------1----------3-3-3---
H|-------5---5-----------5---5----------1---1--------3-3-3---
G|-----6-------6-------6-------6------2-------2------4-4-4---
D|---7-----------7---7--------------3-----------3----5-5-5---
A|---------------------------------------------------5-5-5---
E|-5---------------5--------------1----------------3---------


---
Je zvláštne ráno, smútok štyroch stien [po tomto je v speve prestavka a hra gitara->]

E|-----5-----------
H|-----------------
G|-5/7---7-9-5-4---
D|---------------7-
A|-----------------
E|-----------------

A táto noc, z nej ostal iba tieň [gitara->]

E|-----------------
H|-----------------
G|-------/6-7-9-6--
D|-5-7-9-----------
A|-----------------
E|-----------------

Tak zlý je svet a lásky niet, tá išla preč [gitara->]

E|--10--9-10---------
H|-9--9--------------
G|-------------------
D|-------------------
A|-------------------
E|-------------------

A s kým je ten, čo vravel mám ťa rád [gitara->]

E|--------------------------------
H|-----8-10-10b12r10-12b14r12-10--
G|-8/9----------------------------
D|--------------------------------
A|--------------------------------
E|--------------------------------

---
Malý princ...


solo:[akusticka gitara;doprovod hra A-F-G]

E|---5-9-7---------------------------------------------------------
H|-5-------10-9--------10-9---------------10-9---------------------
G|--------------9--9-9------11-9-7-7--9-9------11-9-6-6-7-7/9-7-6--
D|-----------------------------------------------------------------
A|-----------------------------------------------------------------
E|-----------------------------------------------------------------
Na-na-na-na...[potom nastupi elektricka gitara->]


solo 2:[elektricka gitara]

E|--------------------------------------
H|--------------------------------------
G|-2-2-2/4-2-4-4/6--2-2-2/4-2-7-6-2/4/6-
D|--------------------------------------
A|--------------------------------------
E|--------------------------------------

E|--------------------------------------
H|----------------------------3-2-------
G|-2-2-2/4-2-4-4/6--2-2-2/4-2-----4-2-2-
D|--------------------------------------
A|--------------------------------------
E|--------------------------------------

E|-----------------------------------------------------------------------
H|-----------------------------------------------------------------------
G|-6-6-6/7-6-7-7/9--6/7-7-9-6---6-6-6/7-6-7-7/9--9/10-10/12-12-10-9-10-7-
D|-----------------------------------------------------------------------
A|-----------------------------------------------------------------------
E|-----------------------------------------------------------------------

REnDY

 
»
Tvoje obľúbené položky
Tvoje obľúbené položky
»
Najnovšie videá
Najnovšie videá

»
Tvoje obľúbené piesne
Tvoje obľúbené piesne
»
Najnavštevovanejšie piesne
Najnavštevovanejšie piesne
Malý princ - akordy a text

Malý princ - taby

Love Song - text

Daj mi návod na seba - akordy a text

Malý princ - Komplet - taby

Verím na Teba - text

Pondelok prespím - akordy a text

Aj Tak Skončím Pod Zemou - text

Maly princ - preklad

Snívam - text

Snívam - akordy a text

Modré z neba - (upravené) - text

S tebou - text

Drž si svoj kurz - text

Drž si svoj kurz - akordy a text

Môj svet - akordy

Z neba - akordy

Stará láska samota - text

Modré z neba - akordy a text

Lietaj, dýchaj, buď - akordy a text

viac

»
Nové albumy interpreta
Nové albumy interpreta



home | interpreti | register piesní | cd & dvd shop | pripomienky/nápady | kontakt | ochrana údajov | inzercia