Morčata Na Útěku


piesne (89)

  texty (63)
  akordy (44)
  taby (8)
  preklady (0)


články (4)
Fotky (1)
diskusia
videá
diskografia
v obchode
odkazy
koncerty
sťahuj



pridaj vlastný článok

Atmo Music:
Festival Benátská! s Impulsem oznamuje termín i první účinkující - musicserver.cz


Fragile:
Premiérový Senica fest ponúkne Polemic, AMO aj Iné Kafe


Morčata Na Útěku:
Morčata na útěku nešetří ve svých textech nikoho - denik.cz


Karpina:
Fajny Fest 2009 už v júni - Imrich Makó


 

Morčata Na Útěku

Fanúšikov: 1



A B C Č D E F G H CH I J K L Ľ M N O P Q R S Š T U V W X Y Z Ž



ako:
Morčata Na Útěku - HOWNOTSUTS
Morčata Na Útěku - HOWNOTSUTS

tlač

edituj
Rok vzniku: 2006
Pesničku videlo 354 návštevníkov.

Kvalita tabov : bez hodnotenia
Hodnotilo ľudí: 0 ohodnoť aj ty
Prispievateľ:
Sekačka Obecná
riff:

e|-------------------------------------|
B|------------------------------3------|
G|2--0-2---2-2--0-2-2-5--2-5-5-4----4-4| 3x
D|-------------------------------------|
A|-------------------------------------|
E|-------------------------------------|

e|-------------------------------------|
B|-------------------------------------|
G|2--0-2---2-2--0-2-2-5-5-5-5--2-------|
D|-------------------------------------|
A|-------------------------------------|
E|-------------------------------------|


vyhrávka:

e|-------------------------------|
B|-------------3-----------------|
G|5-5-2--5-4-4----4-2-2-2-0--2---|
D|-------------------------------|
A|-------------------------------|
E|-------------------------------|

 
»
Tvoje obľúbené položky
Tvoje obľúbené položky
»
Najnovšie videá
Najnovšie videá

»
Tvoje obľúbené piesne
Tvoje obľúbené piesne
»
Najnavštevovanejšie piesne
Najnavštevovanejšie piesne
Thajská - akordy a text

Hledá se děda ! - akordy

Severní Vietnam - akordy a text

Rodinná pouta /správné akordy - akordy

Balda - akordy a text

Žlutá - akordy a text

Vladislav - akordy a text

Máme je krátký - akordy a text

Planeta prasat - akordy a text

Rodinná pouta - akordy

Dušan je gay - akordy a text

1.anální - akordy a text

Kakala -divokej bill plakala - akordy a text

Tejemství rituální obřízky - akordy a text

Cháluj - akordy a text

Píčovina - akordy

Veronika - akordy

HOWNOTSUTS - taby

Radek - akordy a text

TwAyLaYt ^_^ MrTe Te MuCiNkAaAm PiCzO! - akordy a text

viac

»
Nové albumy interpreta
Nové albumy interpreta



home | interpreti | register piesní | cd & dvd shop | pripomienky/nápady | kontakt | ochrana údajov | inzercia