Divokej Bill


piesne (256)

  texty (133)
  akordy (94)
  taby (48)
  preklady (0)


články (320)
Fotky (30)
diskusia
videá
diskografia
v obchode
odkazy
koncerty
sťahuj



pridaj vlastný článok

Atmo Music:
Festival Benátská! s Impulsem oznamuje termín i první účinkující - musicserver.cz


Divokej Bill:
Divokej Bill podpoří koncertem kampaň Pinktober - rockandpop.cz


Divokej Bill:
Foto: Létofest – Marek Ztracený, UDG nebo Divokej Bill, 19. – 20. 7. 2019,
České Budějovice
- monstermusic.cz


Divokej Bill:
Divokej Bill oslavil 20 let existence v rozbouřené O2 areně - ceskenoviny.cz


Aurora:
Na co se těšit v lednu: Koncertovat budou Divokej Bill, Aurora, Behemoth i
Ennio Morricone
- ireport.cz


Divokej Bill:
Divokej Bill - Ve vyprodanou O2 arenu jsme nevěřili, odvaha se ale vyplácí - ireport.cz


Divokej Bill:
Divokej Bill dosáhl dvaceti let. Jubileum oslaví v lednu velkolepým koncertem
v O2 areně
- ireport.cz


Divokej Bill:
VIDEOROZHOVOR: Divokej Bill na Žebříku - Za ty roky už jsme vychytali mouchy - ireport.cz


Divokej Bill:
Divokej Bill se v novém klipu těší na jaro - abradio.cz


Divokej Bill:
Divokej Bill na Slovensku finišuje s turné Tsunami - ahudba.sk


 

Divokej Bill

Fanúšikov: 8



A B C Č D E F G H CH I J K L Ľ M N O P Q R S Š T U V W X Y Z Ž



ako:
Divokej Bill - Tsunami
Divokej Bill - Tsunami

tlač

edituj
Rok vzniku: 2017
Pesničku videlo 485 návštevníkov.

Kvalita tabov : bez hodnotenia
Hodnotilo ľudí: 0 ohodnoť aj ty
Prispievateľ:
Dc
  *** Autor textu: Divokej BI?ll *** Autor hudby: Divokej BI?ll

e--------------------------------------------------------------
H--------------------------------------------------------------

G---7----------------------------------------------------------

D-------7------------------------------------------------------
A----------8--10-13-12-----------------------------------------
E--------------------------------------------------------------





e--------------------------------------------------------------
H--------------------------------------------------------------

G---7----------------------------------------------------------

D-------7------------------------------------------------------
A----------8--10-13-12-----------------------------------------
E--------------------------------------------------------------










e--------------------------------------------------------------
H--------------------------------------------------------------

G---7-7--------------------------------------------------------

D-------7-7-------------------------7-7------------------------
A-------------8-10-10--13-13-12-8-8-----8-10-10-13-13-12-------
E--------------------------------------------------------------








 
»
Tvoje obľúbené položky
Tvoje obľúbené položky
»
Najnovšie videá
Najnovšie videá

»
Tvoje obľúbené piesne
Tvoje obľúbené piesne
»
Najnavštevovanejšie piesne
Najnavštevovanejšie piesne
Malování - akordy a text

Plakala - akordy a text

Tsunami - akordy

Kořala/Snílek - akordy

Dolsin - akordy a text

Jaro - akordy a text

Čmelák - akordy a text

Lasko - akordy a text

Vstávej - akordy

Batalion - akordy a text

Rozárce - akordy a text

Dávno - akordy a text

Rozárka - akordy a text

Divokej Bill - akordy a text

Země draků - akordy

Vojáci - akordy a text

Batalion - akordy a text

Čmelák - akordy

Bohužel - akordy

Na tvý louce zelený - akordy a text

viac

»
Nové albumy interpreta
Nové albumy interpreta



home | interpreti | register piesní | cd & dvd shop | pripomienky/nápady | kontakt | ochrana údajov | inzercia