Alice

piesne (12)

  texty () / preklady ()
  akordy () / taby ()
  noty () / slideshow ()

články (21)
fotogaléria
diskusia
videá
diskografia
v obchode
odkazy
koncerty
sťahuj



 

Alice

Fanúšikov: 0



A B C Č D E F G H CH I J K L Ľ M N O P Q R S Š T U V W X Y Z Ž



ako:
Alice - Klidná - správně
Alice - Klidná - správně

tlač

edituj
Pesničku videlo 35 návštevníkov.

Kvalita tabov : bez hodnotenia
Hodnotilo ľudí: 0 ohodnoť aj ty
Prispievateľ:

mrtvocich
  *** Autor textu: Alice *** Autor hudby: Alice
Vsechny struny krome G a H podladit o pulton dolu, zminene dve naladit o pulton nahoru. 

Riff je nejlepe zacinat na druhem prazci prstenickem, aby se vam dobre hraly slidy. Na koncertech to hrajou casto bez vybrnkavani a zni to taky pekne. Vyhravka za 'vedle me spis a jses klidna' zhruba (A) XX2000, (C#m) XXX434, (G) XX0213, (G#m) XX0113

[]

D#||----------0----------|-----------0----------|-----------0----------|
C ||-------0-----0-------|--------0-----0-------|--------5-----5-------|
G#||----0----------------|-----0----------------|-----0----------------|
C#||-2--------------2s---|--5--------------5s---|--4--------------4s---|
G#||---------------------|----------------------|----------------------|
D#||---------------------|----------------------|----------------------|


-----------0---------|||
--------1-----1------|||
-----2---------------|||
--3--------------3---|||
---------------------|||
---------------------|||

 
»
Tvoje obľúbené položky
Tvoje obľúbené položky
»
Najnovšie videá
Najnovšie videá

»
Tvoje obľúbené piesne
Tvoje obľúbené piesne
»
Najnavštevovanejšie piesne
Najnavštevovanejšie piesne
.. a to tě trochu bolí - akordy a text

Ani náhodou - akordy a text

Klidná - akordy a text

Klidná - akordy a text

Ráno - akordy a text

Slepej,mladej,mrtvej - akordy a text

Hej, ty! - text

Tak to je - text

Klidná - taby

.. a to tě trochu bolí - text

Pomalá - akordy a text

»
Nové albumy interpreta
Nové albumy interpreta



home | interpreti | register piesní | cd & dvd shop | pripomienky/nápady | kontakt | ochrana údajov | inzercia