Miro Žbirka


piesne (295)

  texty (217)
  akordy (168)
  taby (9)
  preklady (24)


články (602)
Fotky (59)
diskusia
videá
diskografia
v obchode
odkazy
koncerty
sťahuj



pridaj vlastný článok

Miro Žbirka:
AUDIO: Nová verze Žbirkovy 'Balady o poľných vtákoch' od Márie Čírové a
dcery Zoe bere dech
- Slovy písně Karla Gotta "čas letí jako bláznivý" a už je to tři čtvrtě roku, co... - musicserver.cz


Bones:
V českých žebříčcích se daří Harrymu Stylesovi, má nejžádanější
album a boduje i se singly
- Aktuální kolo tuzemských hitparád přálo hlavně Harrymu Stylesovi. Britský zpěvá... - musicserver.cz


Miro Žbirka:
RECENZE: 'Posledné veci' jsou Mekyho sbohem a Davidovým ahoj - Pod příznačným názvem "Posledné veci" vychází nové album Mira Žbirky. Dvanáct ... - musicserver.cz


Miro Žbirka:
Vychází poslední deska Mira Žbirky - V pátek vychází poslední album Mira Žbirky nazvané Posledné veci. Dvanáct písn... - novinky.cz


Miro Žbirka:
RECENZE: Mekyho posmrtné album je smutné, nikoliv bezvýchodné - Album Posledné veci představuje poslední položku diskografie Miroslava Žbirky s nov... - idnes.cz


Miro Žbirka:
Vychází album Mekyho Žbirky Posledné veci. Dokončoval ho syn David - Nové album Mira Žbirky – Posledné veci, které uzavírá jeho víc než padesátilet... - evropa2.cz


Miro Žbirka:
Vyšiel nový album Mira Žbirku Posledné veci, dokončil ho spevákov syn
David
- Nový album česko-slovenskej hudobnej legendy Mira Žbirku s názvom Posledné veci uzat... - zoznam.sk


Miro Žbirka:
Meky nám zanechal práci na několik let, říká Kateřina Žbirková. Po albu
mu chystá megakoncert
- Populární slovenský zpěvák Miro Žbirka (†69) sice zemřel v listopadu minulého r... - extra.cz


Eva Burešová:
Co je nového na shopu musicserveru? Miro Žbirka, Eva Burešová, Hex,
Rammstein, Eurovize...
- Před několika dny jsme vás informovali o tom, že jsme v rámci společnosti Smile Mus... - musicserver.cz


Miro Žbirka:
'Posledné veci' Mekyho Žbirky vyjdou 20. května. Předobjednejte si
cédéčko už nyní
- Miro Žbirka už tu s námi není téměř půl roku, ale dle hesla #mekynaveky tu s nám... - musicserver.cz


 

Miro Žbirka

Fanúšikov: 11



A B C Č D E F G H CH I J K L Ľ M N O P Q R S Š T U V W X Y Z Ž



ako:
Miro Žbirka - Atlantída
Miro Žbirka - Atlantída

tlač

edituj
Pesničku videlo 22954 návštevníkov.

Kvalita tabov :
Hodnotilo ľudí: 1 ohodnoť aj ty
Intro:

E--------1----------|
H------3---3--------|
G----2-------2---2--|
D--0-----------0----|
A-------------------|
E-------------------| opakuj 4x


1.:
E--------1----------|----------3----------|-------------------|
H------3---3--------|------------0--------|-------------------|
G----2-------2---2--|--------------0---0--|--------2----------|
D--0-----------0----|------0---------0----|------3---3--------|
A-------------------|----2----------------|----3-------3---3--|
E-------------------|--3------------------|--1-----------1----|


-------------------|
--------2----------|
------0---0--------|
----2-------2---2--|
--------------0----|
--0----------------|


E--------1----------|----------3----------|------------|------------|
H------3---3--------|------------0--------|------------|--------2---|
G----2-------2---2--|--------------0---0--|--------2---|------0-----|
D--0-----------0----|------0---------0----|------3-----|----2-------|
A-------------------|----2----------------|----3-------|------------|
E-------------------|--3------------------|--1---------|--0---------|

E--------1---------|
H------3---3-------|
G----2------2---2--|
D--0----------0----|
A------------------|
E------------------|

2.:
E--------1----------|----------3----------|-------------------|
H------3---3--------|------------0--------|-------------------|
G----2-------2---2--|--------------0---0--|--------2----------|
D--0-----------0----|------0---------0----|------3---3--------|
A-------------------|----2----------------|----3-------3---3--|
E-------------------|--3------------------|--1-----------1----|

-------------------|
--------2----------|
------0---0--------|
----2-------2---2--|
--------------0----|
--0----------------|


E--------1----------|----------3----------|------------|-----------|
H------3---3--------|------------0--------|------------|--------2--|
G----2-------2---2--|--------------0---0--|--------2---|------0----|
D--0-----------0----|------0---------0----|------3-----|----2------|
A-------------------|----2----------------|----3-------|-----------|
E-------------------|--3------------------|--1---------|--0--------|

E--------1---------|
H------3---3-------|
G----2------2---2--|
D--0----------0----|
A------------------|
E------------------|

REF:
E-------------------|-------------------|-------------------|
H--------1----------|--------1----------|--------2----------|
G------2---2--------|------0---0--------|------0---0--------|
D----3-------3---3--|----2-------2---2--|----2-------2---2--|
A--3-----------3----|--3-----------3----|--0-----------0----|
E-------------------|-------------------|-------------------|


--------1----------|
------3---3--------|
----2-------2---2--|
--0-----------0----|
-------------------|
-------------------| 2x


E--------1----------|
H------3---3--------|
G----2-------2---2--|
D--0-----------0----|
A-------------------|
E-------------------|

3.:
E--------1----------|----------3----------|-------------------|
H------3---3--------|------------0--------|-------------------|
G----2-------2---2--|--------------0---0--|--------2----------|
D--0-----------0----|------0---------0----|------3---3--------|
A-------------------|----2----------------|----3-------3---3--|
E-------------------|--3------------------|--1-----------1----|


-------------------|
--------2----------|
------0---0--------|
----2-------2---2--|
--------------0----|
--0----------------|


E--------1----------|----------3----------|------------|-----------|
H------3---3--------|------------0--------|------------|--------2--|
G----2-------2---2--|--------------0---0--|--------2---|------0----|
D--0-----------0----|------0---------0----|------3-----|----2------|
A-------------------|----2----------------|----3-------|-----------|
E-------------------|--3------------------|--1---------|--0--------|

E--------1----------|
H------3---3--------|
G----2-------2---2--|
D--0-----------0----|
A-------------------|
E-------------------|

4.:
E--------1----------|----------3----------|-------------------|
H------3---3--------|------------0--------|-------------------|
G----2-------2---2--|--------------0---0--|--------2----------|
D--0-----------0----|------0---------0----|------3---3--------|
A-------------------|----2----------------|----3-------3---3--|
E-------------------|--3------------------|--1-----------1----|


-------------------|
--------2----------|
------0---0--------|
----2-------2---2--|
--------------0----|
--0----------------|



E--------1----------|----------3----------|------------|-----------|
H------3---3--------|------------0--------|------------|--------2--|
G----2-------2---2--|--------------0---0--|--------2---|------0----|
D--0-----------0----|------0---------0----|------3-----|----2------|
A-------------------|----2----------------|----3-------|-----------|
E-------------------|--3------------------|--1---------|--0--------|

E--------1----------|
H------3---3--------|
G----2-------2---2--|
D--0-----------0----|
A-------------------|
E-------------------|


E--------1----------|
H------3---3--------|
G----2-------2---2--|
D--0-----------0----|
A-------------------|
E-------------------|

REF

5.:
E---------------------|-------------------|---------------------|
H----------1----------|--------1----------|----------2----------|
G--------2---2--------|------0---0--------|--------0---0--------|
D------3-------3---3--|----2-------2---2--|------2-------2---2--|
A----3-----------3----|--3-----------3----|----0-----------0----|
E---------------------|-------------------|---------------------|


--------1----------|
------3---3--------|
----2-------2---2--|
--0-----------0----|
-------------------|
-------------------| 2x


E--------1----------|
H------3---3--------|
G----2-------2---2--|
D--0-----------0----|
A-------------------|
E-------------------|

spomaľ
E--------1--------------------|
H------3---3------------------|
G----2-------2---2------------|
D--------------0------0-------|
A--0--------------------------|
E-----------------------------|


nie som si istý, či je to úplne správne, lebo sú to moje prvé taby, tak pripomienky a opravy mi posielajte na bracho2@gmail.com

MIKE






 
»
Tvoje obľúbené položky
Tvoje obľúbené položky
»
Najnovšie videá
Najnovšie videá

»
Tvoje obľúbené piesne
Tvoje obľúbené piesne
»
Najnavštevovanejšie piesne
Najnavštevovanejšie piesne
Atlantída - akordy a text

V slepých uličkách - akordy a text

Biely kvet - akordy a text

Múr našich lások - akordy a text

Mám rád - akordy a text

Balada o poľných vtákoch - 2 - akordy a text

22 Dní - akordy a text

Prvá - akordy a text

22 dní - akordy a text

Ako obrázok - lepsie - akordy a text

Balada o poľných vtákoch - akordy a text

Ako obrázok - akordy a text

Ty a ja - akordy a text

Čistý svet - akordy a text

Jesenná láska - akordy a text

Nespáľme to krásne v nás - akordy a text

Katka - akordy a text

Vieš byť zlá - akordy a text

Čo bolí, to prebolí. - akordy a text

Atlantída - miro zbirka - text

viac

»
Nové albumy interpreta
Nové albumy interpreta



home | interpreti | register piesní | cd & dvd shop | pripomienky/nápady | kontakt | ochrana údajov | inzercia