Tomasso Albinoni


piesne (1)

  texty (0)
  akordy (0)
  taby (1)
  preklady (0)


články (0)
Fotky (0)
diskusia
videá
diskografia
v obchode
odkazy
koncerty
sťahuj



pridaj vlastný článok




 

Tomasso Albinoni

Fanúšikov: 0



A B C Č D E F G H CH I J K L Ľ M N O P Q R S Š T U V W X Y Z Ž



ako:
Tomasso Albinoni - Adagio
Tomasso Albinoni - Adagio

tlač

edituj
Pesničku videlo 3152 návštevníkov.

Kvalita tabov : bez hodnotenia
Hodnotilo ľudí: 0 ohodnoť aj ty
E||--0------------|--0------------|--0-2-3--------0--|--0------------|
B||--0------------|--0------------|------------------|---------------|
G||--0------------|--0------------|------------------|---------------|
D||---------------|---------------|------------------|---------------|
A||---------------|---------------|------------------|---------------|
E||---------------|---------------|------------------|---------------|



--2-3-5----------|--3-2-3----------|--2-0-2--------0--|--0------------|
-----------------|-----------------|------------------|--0------------|
-----------------|-----------------|------------------|--0------------|
-----------------|-----------------|------------------|---------------|
-----------------|-----------------|------------------|---------------|
-----------------|-----------------|------------------|---------------|



--7----5---3-2---0-|--0-------------|--8----7---5-3---2-|--2--------0----|
-------------------|-----------4----|-------------------|----------------|
-------------------|----------------|-------------------|----------------|
-------------------|----------------|-------------------|----------------|
-------------------|----------------|-------------------|----------------|
-------------------|----------------|-------------------|----------------|



--12----10--12------10------|----------------|--10----8--10--7--8--5--|
----------------13------12--|--13------------|------------------------|
----------------------------|----------------|------------------------|
----------------------------|----------------|------------------------|
----------------------------|----------------|------------------------|
----------------------------|----------------|------------------------|



--7------------|--8-----7--8--5--7-----|--5------------|--7--------8----|
---------------|--8-----------------8--|---------------|----------------|
---------------|--9--------------------|---------------|----------------|
---------------|--10-------------------|---------------|----------------|
---------------|-----------------------|---------------|----------------|
---------------|-----------------------|---------------|----------------|



--7----------12--|--14--15--14--12--11--12--|--10------13--12---10-|
-----------------|--------------------------|----------------------|
-----------------|--------------------------|----------------------|
-----------------|--------------------------|----------------------|
-----------------|--------------------------|----------------------|
-----------------|--------------------------|----------------------|



--8----------8---12-|------------------12--|---------------7-8-7-5-|
---------10---------|--12----------12------|--10--------10---------|
--------------------|----------12----------|-----------------------|
--------------------|----------------------|-----------------------|
--------------------|----------------------|-----------------------|
--------------------|----------------------|-----------------------|



--3--------3-5-7-5-3-|--2--------2-3-5-3-2-|--0------------|--0------------|
---------------------|---------------------|--0------------|--0------------|
---------------------|---------------------|--0------------|--0------------|
---------------------|---------------------|---------------|---------------|
---------------------|---------------------|---------------|---------------|
---------------------|---------------------|---------------|---------------|



--0------------|--0-2-3--------0--|--0------------|--2-3-5----------|
--0------------|------------------|---------------|-----------------|
--0------------|------------------|---------------|-----------------|
---------------|------------------|---------------|-----------------|
---------------|------------------|---------------|-----------------|
---------------|------------------|---------------|-----------------|



--3-2-3----------|--2-0-2--------0--|--0------------|--7----5---3-2---0-|
-----------------|------------------|--0------------|-------------------|
-----------------|------------------|--0------------|-------------------|
-----------------|------------------|---------------|-------------------|
-----------------|------------------|---------------|-------------------|
-----------------|------------------|---------------|-------------------|



--0-------------|--8----7---5-3---2-|--2--------0----|
-----------4----|-------------------|----------------|
----------------|-------------------|----------------|
----------------|-------------------|----------------|
----------------|-------------------|----------------|
----------------|-------------------|----------------|



--12----10--12------10------|----------------|--10----8--10--7--8--5--|
----------------13------12--|--13------------|------------------------|
----------------------------|----------------|------------------------|
----------------------------|----------------|------------------------|
----------------------------|----------------|------------------------|
----------------------------|----------------|------------------------|



--7------------|--8-----7--8--5--7-----|--5------------|--7--------8----|
---------------|--8-----------------8--|---------------|----------------|
---------------|--9--------------------|---------------|----------------|
---------------|--10-------------------|---------------|----------------|
---------------|-----------------------|---------------|----------------|
---------------|-----------------------|---------------|----------------|



--7----------12--|--14--15--14--12--11--12--|--10------13--12---10-|
-----------------|--------------------------|----------------------|
-----------------|--------------------------|----------------------|
-----------------|--------------------------|----------------------|
-----------------|--------------------------|----------------------|
-----------------|--------------------------|----------------------|



--8----------8---12-|------------------12--|---------------7-8-7-5-|
---------10---------|--12----------12------|--10--------10---------|
--------------------|----------12----------|-----------------------|
--------------------|----------------------|-----------------------|
--------------------|----------------------|-----------------------|
--------------------|----------------------|-----------------------|



--3--------3-5-7-5-3-|--2--------2-3-5-3-2-|--0------------|
---------------------|---------------------|--0------------|
---------------------|---------------------|--0------------|
---------------------|---------------------|---------------|
---------------------|---------------------|---------------|
---------------------|---------------------|---------------|



--0------0--1-0---0-|--------------------------|---------0--1-0---0-|
--0-------------4---|--3-1-0-1-3-1-0-1-0-------|--0-------------4---|
--1-----------------|--------------------2-1-2-|--------------------|
--0-----------------|--------------------------|--------------------|
--2-----------------|--------------------------|--------------------|
--------------------|--------------------------|--------------------|



--------------|---------------|--------------------|--0-------------|
--------------|---------------|--------1--------1--|--1-----------1-|
--------------|--2------------|-----2--------2-----|--2-----------2-|
--------------|---------------|--2--------2--------|--2-----------2-|
--------------|---------------|--------------------|--------------0-|
--------------|---------------|--------------------|--------------0-|



--------5--6-5-4-5-|--3-1-0-1-3-1-0-1-0-------|---------------|---------------|
-------------------|--------------------3-2-3-|-------------2-|--3------------|
-------------------|--------------------------|-------------0-|--2------------|
-------------------|--------------------------|-------------2-|--3------------|
-------------------|--------------------------|---------------|---------------|
-------------------|--------------------------|---------------|---------------|



--------------|----------1----|----------2----|--------------------|
--------------|----------3----|----------0----|--0--------------0--|
--------------|----------2----|----------2----|--------------0-----|
--------------|----------0----|----------1----|-----------2--------|
--------------|---------------|----------2----|--------2-----------|
--------------|---------------|---------------|-----0--------------|



--0--3--7--12--15--19--|--24------------|--0------------|--0------------|
-----------------------|----------------|--0------------|--0------------|
-----------------------|----------------|--0------------|--0------------|
-----------------------|----------------|---------------|---------------|
-----------------------|----------------|---------------|---------------|
-----------------------|----------------|---------------|---------------|



--0-2-3--------0--|--0------------|--2-3-5----------|--3-2-3----------|
------------------|---------------|-----------------|-----------------|
------------------|---------------|-----------------|-----------------|
------------------|---------------|-----------------|-----------------|
------------------|---------------|-----------------|-----------------|
------------------|---------------|-----------------|-----------------|



--2-0-2--------0--|--0------------|--7----5---3-2---0-|--0-------------|
------------------|--0------------|-------------------|-----------4----|
------------------|--0------------|-------------------|----------------|
------------------|---------------|-------------------|----------------|
------------------|---------------|-------------------|----------------|
------------------|---------------|-------------------|----------------|



--8----7---5-3---2-|--2--------0----|--12----10--12------10------|
-------------------|----------------|----------------13------12--|
-------------------|----------------|----------------------------|
-------------------|----------------|----------------------------|
-------------------|----------------|----------------------------|
-------------------|----------------|----------------------------|



----------------|--10----8--10--7--8--5--|--7------------|
--13------------|------------------------|---------------|
----------------|------------------------|---------------|
----------------|------------------------|---------------|
----------------|------------------------|---------------|
----------------|------------------------|---------------|



--8-----7--8--5--7-----|--5------------|--7--------8----|--7----------12--|
--8-----------------8--|---------------|----------------|-----------------|
--9--------------------|---------------|----------------|-----------------|
--10-------------------|---------------|----------------|-----------------|
-----------------------|---------------|----------------|-----------------|
-----------------------|---------------|----------------|-----------------|



--14--15--14--12--11--12--|--10------13--12---10-|--8----------8---12-|
--------------------------|----------------------|---------10---------|
--------------------------|----------------------|--------------------|
--------------------------|----------------------|--------------------|
--------------------------|----------------------|--------------------|
--------------------------|----------------------|--------------------|



------------------12--|---------------7-8-7-5-|--3--------3-5-7-5-3-|
--12----------12------|--10--------10---------|---------------------|
----------12----------|-----------------------|---------------------|
----------------------|-----------------------|---------------------|
----------------------|-----------------------|---------------------|
----------------------|-----------------------|---------------------|



--2--------2-3-5-3-2-|--0------------|--0------0--1-0---0-|
---------------------|--0------------|--0-------------4---|
---------------------|--0------------|--1-----------------|
---------------------|---------------|--0-----------------|
---------------------|---------------|--2-----------------|
---------------------|---------------|--------------------|



--------------------------|---------0--1-0---0-|--------------|---------------|
--3-1-0-1-3-1-0-1-0-------|--0-------------4---|--------------|---------------|
--------------------2-1-2-|--------------------|--------------|--2------------|
--------------------------|--------------------|--------------|---------------|
--------------------------|--------------------|--------------|---------------|
--------------------------|--------------------|--------------|---------------|



--------------------|--0-------------|--------5--6-5-4-5-|
--------1--------1--|--1-----------1-|-------------------|
-----2--------2-----|--2-----------2-|-------------------|
--2--------2--------|--2-----------2-|-------------------|
--------------------|--------------0-|-------------------|
--------------------|--------------0-|-------------------|



--3-1-0-1-3-1-0-1-0-------|---------------|---------------|--------------|
--------------------3-2-3-|-------------2-|--3------------|--------------|
--------------------------|-------------0-|--2------------|--------------|
--------------------------|-------------2-|--3------------|--------------|
--------------------------|---------------|---------------|--------------|
--------------------------|---------------|---------------|--------------|



----------1----|----------2----|--------------------|--0--3--7--12--15--19--|
----------3----|----------0----|--0--------------0--|-----------------------|
----------2----|----------2----|--------------0-----|-----------------------|
----------0----|----------1----|-----------2--------|-----------------------|
---------------|----------2----|--------2-----------|-----------------------|
---------------|---------------|-----0--------------|-----------------------|



--24------------|--0------------||
----------------|--0------------||
----------------|--0------------||
----------------|---------------||
----------------|---------------||
----------------|---------------||

 
»
Tvoje obľúbené položky
Tvoje obľúbené položky
»
Najnovšie videá
Najnovšie videá

»
Tvoje obľúbené piesne
Tvoje obľúbené piesne
»
Najnavštevovanejšie piesne
Najnavštevovanejšie piesne
Adagio - taby

»
Nové albumy interpreta
Nové albumy interpreta



home | interpreti | register piesní | cd & dvd shop | pripomienky/nápady | kontakt | ochrana údajov | inzercia