Xavier Baumaxa


piesne (125)

  texty (93)
  akordy (70)
  taby (13)
  preklady (0)


články (55)
Fotky (2)
diskusia
videá
diskografia
v obchode
odkazy
koncerty
sťahuj



pridaj vlastný článok

Andrea:
Víkend se živou hudbou: Festival Spolu jedním hlasem s Tomášem Klusem či
Sebastianem, streamy chystají i Dymytry a Tři sestry
- Vydáno včera | autor: Andrea Štipčáková Ži vé koncerty s omezenou kapacitou... - ireport.cz


Michal Bystrov:
Čas na dobrou hudbu. Poslouchejte online - 18.3.2020 Na internetu se skrývá spousta skvělé muziky. Dobu strávenou v karantén... - denik.cz


Ac/dc:
Květen bude popovější. Nabídne také hodně českých koncertů - denik.cz


Xavier Baumaxa:
FOTO: MUCHA, XAVIER BAUMAXA, MUSILKA, BRNO, 7. 9. 2017 - musicweb.cz


Xavier Baumaxa:
Mucha a Xavier Baumaxa spojí síly na Střeláku - abradio.cz


Xavier Baumaxa:
Zraněný Xavier Baumaxa pokřtí nové album s náhradním kytaristou - IREPORT


J.a.r.:
Pětadvacetileté J.A.R. přijdou do Lucerny podpořit Vladimir 518, Vojta Dyk i
Xavier Baumaxa
- IREPORT


Ahmed Má Hlad:
Festivalový víkend: bylo to krásné a nebylo toho dost - lidovky.cz


Balaton Sound:
Český YouTube Fest 2013 zná jména patnácti finalistů - musicserver.cz


Bad Seeds:
Na Pohode vystúpi aj Tony Allen a kolumbijská Ondatrópica


 

Xavier Baumaxa

Fanúšikov: 3



A B C Č D E F G H CH I J K L Ľ M N O P Q R S Š T U V W X Y Z Ž



ako:
Xavier Baumaxa - Nonšalantní Bolivián
Xavier Baumaxa - Nonšalantní Bolivián

tlač

edituj
Poznámka: Tak takhle to OPRAVDU hraje Xavier Baumaxa. Ale opravdu ;) Jo a doufám, že jsem to dal do správnýho typu skladeb..

Pesničku videlo 5352 návštevníkov.

Kvalita tabov :
Hodnotilo ľudí: 2 ohodnoť aj ty
  *** Autor textu: Xavier Baumaxa *** Autor hudby: Xavier Baumaxa
Normální sloka



2x
D |F#mi |Emi |D
---------|--------|--------|---------
--3-3-3--|--------|-0-0-0--|-3-3-----
--2-2-2--|-2-2-2--|-0-0-0--|-2-2-----
-0---0--0|-4-4-432|2---2--2|0---0----
---0---0-|4---4---|--2---2-|--0--024-
---------|--2-----|--------|---------


Refrén - létem báječným zahýbají
2x
Hmi |F#mi |G (3.p.)|D
---------|--------|--------|---------
---------|--------|--------|-3-3-----
--4-4-4--|-2-2-2--|-4-4-4--|-2-220---
--4-4-4--|-4-4-4--|-5-5-5--|0-----42-
-2---2--2|4---4--4|5---5--5|--0------
---2---2-|--2---2-|--3---3-|---------


Refrén - létem slunečným se protančím
Hmi |F#mi |G (3.p.)|D
---------|--------|--------|---------
---------|--------|--------|-3-3-----
--4-4-4--|-2-2-2--|-4-4-4--|-2-220---
--4-4-4--|-4-4-4--|-5-5-5--|0-----42-
-2---2--2|4---4--4|5---5--5|--0------
---2---2-|--2---2-|--3---3-|---------

Hmi |F#mi |G (3.p.)|Dx
---------|--------|--------|--------
---------|--------|--------|-3-3-3-3
--4-4-4--|-2-2-2--|-4-4-4--|-2-2-2-2
--4-4-4--|-4-4-4--|-5-5-5--|0---0---
-2---2--2|4---4--4|5---5--5|--0---0-
---2---2-|--2---2-|--3---3-|--------

Ax |Hmi |A |D |Emi |A
---------|----|----|----|----|----.----
--2-2-2-2|----|-2-2|-3-3|-0-0|-2-2.----
--2-2-2-2|-4-4|-2-2|-2-2|-0-0|-2-2.20--
---2---2-|-4-4|--2-|0---|----|--2-.--42
-0---0---|--2-|0---|--0-|--2-|0---.----
---------|2---|----|----|0---|----.----



. = jak dlouho vydržíte ;)
- zpívá sólo nebo tak něco

Dx, Ax = hrajte normálně jak u refrénu.
Rozdíl je tam, kde jen "brouká"..
..v těchto dvou akordech pak zpívá "ts",
takže se Dx a Ax musí zkrátit.

Když si to naposloucháte z cd/mp3,
tak to zahrajete ;)

A kdyby byl nějaký problém,
tak se ozvěte XD

qeef411

 
»
Tvoje obľúbené položky
Tvoje obľúbené položky
»
Najnovšie videá
Najnovšie videá

»
Tvoje obľúbené piesne
Tvoje obľúbené piesne
»
Najnavštevovanejšie piesne
Najnavštevovanejšie piesne
Pažitka - akordy a text

Dátamtůja - akordy a text

Nazijazz - akordy a text

Pažitka - Správně - akordy

Vegetarián - akordy

Lidé Z Malých Vesniček - akordy a text

Mámámamá - akordy

Špulka A Já - akordy a text

Otvírákem - akordy a text

Ozajstný Hip-hop - text

Pan Farář - akordy a text

Romale Rap - akordy a text

Ing. Pavel Pavel - akordy a text

Babí Léto - akordy

Lidé Z Malých Vesniček - Tab - taby

Kafkova Praha - akordy a text

Rosička - akordy a text

Retrofutro Discoteque - akordy a text

Last Free Place - akordy a text

Snížek - akordy a text

viac

»
Nové albumy interpreta
Nové albumy interpreta



home | interpreti | register piesní | cd & dvd shop | pripomienky/nápady | kontakt | ochrana údajov | inzercia