Billy Bauer Band


piesne (8)

  texty (6)
  akordy (1)
  taby (2)
  preklady (0)


články (0)
Fotky (3)
diskusia
videá
diskografia
v obchode
odkazy
koncerty
sťahuj



pridaj vlastný článok




 

Billy Bauer Band

Fanúšikov: 0



A B C Č D E F G H CH I J K L Ľ M N O P Q R S Š T U V W X Y Z Ž



ako:
Billy Bauer Band - 55
Billy Bauer Band - 55

tlač

edituj
Pesničku videlo 1427 návštevníkov.

Kvalita tabov : bez hodnotenia
Hodnotilo ľudí: 0 ohodnoť aj ty
CAPO. 1.PRAŽEC!!!!!!!!!!!!!!!!!!!!!!!!!!!!!!!!!!!!!!!!!!!!!!!!!!!

Sloka:
E:-4----4----|
B:-1----1----|
G:-1----1----|
D:-1----3----|
A:-3----4----|
E:-4----1----|

Ref.
E:-------------|
B:-------------|
G:-1--3--1--1--|
D:-3--1--1--3--|
A:-3--1--3--4--|
E:-1--3--4--1--|

Bridge:
E:-1------1---1---|
B:-11-----11--11--|
G:-1------1---1---|
D:-10-----10--10--|
A:-8------1---1---|
E:-1------8---9---|

 
»
Tvoje obľúbené položky
Tvoje obľúbené položky
»
Najnovšie videá
Najnovšie videá

»
Tvoje obľúbené piesne
Tvoje obľúbené piesne
»
Najnavštevovanejšie piesne
Najnavštevovanejšie piesne
»
Nové albumy interpreta
Nové albumy interpreta



home | interpreti | register piesní | cd & dvd shop | pripomienky/nápady | kontakt | ochrana údajov | inzercia