Aya


piesne (99)

  texty (80)
  akordy (35)
  taby (8)
  preklady (2)


články (56)
Fotky (23)
diskusia
videá
diskografia
v obchode
odkazy
koncerty
sťahuj



pridaj vlastný článok

Amphibios:
Predstavujeme hudobný objav, skupinu FREYA - RÁDIO KOŠICE, Včera | 10:30 Hudobná formácia predstavuje svoju autorskú prvotinu "... - radiokosice.sk


Aya:
AYA poprvé v Lucerně - 13.02.2020 - 09:41 Rozhovory Autor: Ivan Rössler AYA ze Žiliny se na Koncert legend pr... - muzimax.cz


Aya:
Pražská Lucerna privíta obnovený Československý beat festival - RÁDIO KOŠICE, 07.02.2020 | 17:52 Stane sa tak 28. marca a opäť vystúpia legendy če... - radiokosice.sk


Aya:
Československý beat-festival po 50 letech - muzimax.cz


Aya:
AYA pripravuje Rockové Vianoce a mieri do Lucerny - music-zone.eu


Aya:
Na koncert legend míří skupina AYA - radiobeat.cz


Aya:
Aya sa stala víťazom Československého beatového festivalu - zoznam.sk


Aya:
AYA chce naplnit haly a stadiony - muzimax.cz


Aya:
AYA: Všetko čo v tejto brandži robíme je o spolupráci


Aya:
Mario Maryša Tománek zo skupiny AYA: Už sme nechceli byť živé magneťáky - aktuality.sk


 

Aya

Fanúšikov: 1



A B C Č D E F G H CH I J K L Ľ M N O P Q R S Š T U V W X Y Z Ž



ako:
Aya - Na horách nerastie
Aya - Na horách nerastie

tlač

edituj
Pesničku videlo 2870 návštevníkov.

Kvalita tabov : bez hodnotenia
Hodnotilo ľudí: 0 ohodnoť aj ty
Prispievateľ:
andrejkooo
Intro
e|----------------------------------------2
h|------2-----------------0---------3-----3
g|--------2-----------------1-----2-------2
d|----2--------------2----------0---------0
a|--0--------------------------------------
e|----------------0------------------------

Solo
e|-------------------------------------|----------------------------|
h|----9-10----10-10--------------------|----9-10-----10-12/14--12---|
g|--9---------------11-9---11--9-------|-9---------11---------------|
d|-------------------------------12/11-|----------------------------|
a|-------------------------------------|----------------------------|
e|-------------------------------------|----------------------------|

e|-------------------------------------|12-12-12-10-12-10-9/10/12/10|
h|-14-17-14---12--14-12-10-10----------|----------------------------|
g|-------------------------------------|----------------------------|
d|-------------------------------------|----------------------------|
a|-------------------------------------|----------------------------|
e|-------------------------------------|----------------------------|

e|9/10/12/10----------------------------|
h|-----------10--------14/15------------|
g|--------------------------------------|
d|--------------------------------------|
a|--------------------------------------|
e|--------------------------------------|

 
»
Tvoje obľúbené položky
Tvoje obľúbené položky
»
Najnovšie videá
Najnovšie videá

»
Tvoje obľúbené piesne
Tvoje obľúbené piesne
»
Najnavštevovanejšie piesne
Najnavštevovanejšie piesne
Malý princ - akordy a text

Malý princ - taby

Love Song - text

Daj mi návod na seba - akordy a text

Malý princ - Komplet - taby

Verím na Teba - text

Pondelok prespím - akordy a text

Aj Tak Skončím Pod Zemou - text

Maly princ - preklad

Snívam - text

Snívam - akordy a text

Modré z neba - (upravené) - text

S tebou - text

Drž si svoj kurz - text

Drž si svoj kurz - akordy a text

Môj svet - akordy

Z neba - akordy

Stará láska samota - text

Modré z neba - akordy a text

Lietaj, dýchaj, buď - akordy a text

viac

»
Nové albumy interpreta
Nové albumy interpreta



home | interpreti | register piesní | cd & dvd shop | pripomienky/nápady | kontakt | ochrana údajov | inzercia