Support Lesbiens


piesne (105)

  texty (85)
  akordy (31)
  taby (2)
  preklady (8)


články (318)
Fotky (12)
diskusia
videá
diskografia
v obchode
odkazy
koncerty
sťahuj



pridaj vlastný článok

Veronika Morávková:
Zpěvačka Lara Morr: Mé písničky vznikly z lásky - V Česku žijící slovenská zpěvačka Lara Morr, vlastním jménem Veronika Morávkov... - novinky.cz


Support Lesbiens:
Marley Wildthing & Dušan Marko s orientálnym debutom prinášajú klip z
Jordánska
- Slovenský spevák, multiinštrumentalista a skladateľ Dušan Marko, pôsobiaci aj ako f...


Support Lesbiens:
Příběh českého hitu: Support Lesbiens - Sweet Little Something - Když se skupina Support Lesbiens v roce 1996 rozpadla, zdálo se, že natrvalo. O čtyř... - IREPORT


Support Lesbiens:
Support Lesbiens přicházejí s halloweenským videoklipem k písni White Lines - Písnička White Lines, která ve svém textu popisuje temné tempo nočního života v ... - novinky.cz


Support Lesbiens:
VIDEO: Support Lesbiens oslavují Halloween klipem k písni White Lines - Singl, který popisuje temné tempo nočního života v metropolích, měl původně oko... - idnes.cz


Support Lesbiens:
Support Lesbiens prichádzajú s halloweenskym videom k piesni White Lines - Kapela Support Lesbiens zverejnila nový singel White Lines, ktorý popisuje temné tempo... - zoznam.sk


ALOK:
HUDEBNÍ NOVINKY tohoto týdne přišel uvést Dušan Marko ze skupiny Support
Lesbiens
- ALOK feat. DYNORO – On & On BURAK YETER – Teenage Runaway NATHAN DAWE feat. KSI & ELL... - evropa2.cz


Support Lesbiens:
Novinka Evropy 2: SUPPORT LESBIENS – White Lines - Hrajeme od soboty 12. září 2020. The post Novinka Evropy 2: SUPPORT LESBIENS – Whit... - evropa2.cz


Michal Horák:
První český festival letošní sezony s publikem - 9× | Fotogalerie James Cunningham James Cunningham 07. května 2020 14:30 Pořa... - evropa2.cz


Andrea:
Víkend se živou hudbou: Festival Spolu jedním hlasem s Tomášem Klusem či
Sebastianem, streamy chystají i Dymytry a Tři sestry
- Vydáno včera | autor: Andrea Štipčáková Ži vé koncerty s omezenou kapacitou... - ireport.cz


 

Support Lesbiens

Fanúšikov: 1



A B C Č D E F G H CH I J K L Ľ M N O P Q R S Š T U V W X Y Z Ž



ako:
Support Lesbiens - Máj
Support Lesbiens - Máj

tlač

edituj
Poznámka: Skladba ze soundtracku: 01 Kam slzy padnou, květ uvadne

Pesničku videlo 16970 návštevníkov.

Kvalita tabov :
Hodnotilo ľudí: 1 ohodnoť aj ty
Support Lesbiens – Máj   (=Skladba ze soundtracku: 01 Kam slzy padnou, květ uvadne)


Kytara 1:

|--0—0^2/3-----7---7/5----2-----5/3^0-------|-------0^1^0------------------------------------------------------------|
|-------------------------------------------|--------------------------2^0-------------------------------------------|
|-------------------------------------------|------------------------------------------------------------------------|
|-------------------------------------------|------------------------------------------------------------------------|
|-------------------------------------------|------------------------------------------------------------------------|

|--0--0^2/3------7--7/5----2-----5/3^0----|---0^1^0----------------|---0—0^2/3---7—7/8---2---5/3^0-------------------|
|-----------------------------------------|-----------------2^0----|-------------------------------------------------|
|-----------------------------------------|------------------------|-------------------------------------------------|
|--2--2^4/5------9--9/7----4-----7/5^2----|------------------------|-------------------------------------------------|
|-----------------------------------------|------------------------|-------------------------------------------------|
|-----------------------------------------|------------------------|-------------------------------------------------|



Kytara 2:

Emi G D
|--------------------------------------------------------------------------------------------------------------------|
|--------------------------------------------------------------------------------------------------------------------|
|-------------0------------------------------------0-----------------------------2-----------------------------------|
|---------2-----------------------------------0-------------------------0--------------------------------------------|
|-----2----------------------------------2------------------------0--------------------------------------------------|
|--0--------------------------------3--------------------------------------------------------------------------------|

Kytara 2 začíná, po prvním zahrání zahraje tento tab po druhé, ale po dokončení Emi už navazuje Kytara 1. Kytara 2 poté hraje v rytmu doprovázejíc Kytaru 1 až do konce.

 
»
Tvoje obľúbené položky
Tvoje obľúbené položky
»
Najnovšie videá
Najnovšie videá

»
Tvoje obľúbené piesne
Tvoje obľúbené piesne
»
Najnavštevovanejšie piesne
Najnavštevovanejšie piesne
Máj / OPRAVA - akordy

Sweet Little Something - akordy a text

Pohádka - akordy

In Da Yard - akordy a text

Životní - akordy a text

An English Stereo - akordy a text

Movin' On - text

Bet my soul - text

Máj - akordy a text

Bet my soul - akordy

FEEL U - CZ - preklad

Máj - text

In Da Yard -

TOO LATE MY SON - CZ - preklad

Sweet Little Something - text

Apology - text

Looking for myself - akordy a text

Let's Just Sing - text

Tune da radio - text

Function disabled - text

viac

»
Nové albumy interpreta
Nové albumy interpreta



home | interpreti | register piesní | cd & dvd shop | pripomienky/nápady | kontakt | ochrana údajov | inzercia