Daniel Landa

piesne (308)

  texty () / preklady ()
  akordy () / taby ()
  noty () / slideshow ()

články (184)
fotogaléria
diskusia
videá
diskografia
v obchode
odkazy
koncerty
sťahuj



pridaj vlastný článok

Daniel Landa:
Daniel Landa se snaží "Ukolébavkou" společnost probudit - Vydáno: 23.05.2020 19:16 v sekci Audio - Ondřej Hricko | foto: Michal Horka SDÍLET: ... - musicserver.cz


Daniel Landa:
Daniel Landa ide do boja A TOTO radí všetkým! - pred 2 dňami Topstar.sk HudbaREDAKCIA/PKDaniel Landa ide do boja! A TOTO radí všetkým... - noviny.sk


Daniel Landa:
Daniel Landa v novém singlu marně volá: "Hoří horizont" - musicserver.cz


Daniel Landa:
Daniel Landa: Smyslem života je vnitřní mír - novinky.cz


Daniel Landa:
Daniel Landa oslaví padesátiny koncerty ve velkých halách - ceskenoviny.cz


Daniel Landa:
Dan Landa přiznal: Bojuji s finančním úřadem Kvůli Žitovi… - blesk.cz


Daniel Landa:
Krysař sa vrátil do Divadla Kalich v Prahe - R.Tomášová


Krysař:
Muzikál Krysař se vrátil v novém provedení - novinky.cz


Martin Chodúr:
Krysař je sám o sobě démonický. A stále má co říct - denik.cz


Ondřej Brzobohatý:
TOP 12 nejočekávanějších domácích alb podzimu: Mandrage, Ondřej
Brzobohatý, Mydy Rabycad a další
- ireport.cz


 

Daniel Landa

Fanúšikov: 4



A B C Č D E F G H CH I J K L Ľ M N O P Q R S Š T U V W X Y Z Ž



ako:
Daniel Landa - Krysař a osud
Daniel Landa - Krysař a osud

tlač

edituj
Pesničku videlo 9309 návštevníkov.

Kvalita tabov : bez hodnotenia
Hodnotilo ľudí: 0 ohodnoť aj ty
Daniel Landa - Krysař a Osud

by SHUPA (by KUBA, ale pořád mi tam něco chybělo, tak jsem to doplnil)



Am C G



e | ------------------------------------------------3-----------------

h | --------1-0----------1-0---0-1-------1--------3---------0-1-0-----

g | ------2-----0------2-----0---------0--------0---------0-------2-0-

d | ---2-------------2---------------2--------0---------0-------------

A | 0--------------0---------------3----------------------------------

E | ----------------------------------------3---------3--------------







F Am C F Em D



e | -----------------------------------------1---------------

h | ------1-0-----------1-0----------1-----1----0---3--------

g | ----2-----2-------2-----2------0-----2------0---2--------

d | --3-------------2------------2-----3--------2---0--------

A | -------------0-------------3----------------2---0-3-2----

E | 1-------------------------------------------0------------




 
»
Tvoje obľúbené položky
Tvoje obľúbené položky
»
Najnovšie videá
Najnovšie videá

»
Tvoje obľúbené piesne
Tvoje obľúbené piesne
»
Najnavštevovanejšie piesne
Najnavštevovanejšie piesne
Andílek - akordy a text

Tajemství - akordy a text

Morituri te salutant - akordy a text

Tacho - akordy a text

Valčík - akordy a text

Ona - akordy a text

Pozdrav z fronty - akordy a text

1938 - akordy a text

Protestsong správně - akordy a text

Třista z místa - akordy a text

Touha - akordy a text

Malá díra v hlavě - akordy a text

Pozdrav Z Fronty - akordy a text

Jó ulice - akordy a text

Zombice - akordy a text

Ukolébavka - akordy a text

Sen (Krysař) - akordy

Bílá Hora - akordy a text

Šance - akordy a text

Holky a mašiny - akordy a text

viac

»
Nové albumy interpreta
Nové albumy interpreta



home | interpreti | register piesní | cd & dvd shop | pripomienky/nápady | kontakt | ochrana údajov | inzercia