Bad Manners


piesne (4)

  texty (2)
  akordy (0)
  taby (2)
  preklady (0)


články (1)
Fotky (1)
diskografia
v obchode
odkazy




pridaj vlastný článok

Bad Manners:
Americké duo Black Pistol Fire v Randali - musicpress.sk


Bad Manners:
Bad Manners, přeborníci v tanečních vystoupeních, se vrací do Prahy - Milovníci 2 tone ska si 18. června přijdou na své. Do pražského Rock Café totiž z... - IREPORT


 

Bad Manners

Fanúšikov: 0



A B C D E F G H CH I J K L M N O P Q R S T U V W X Y Z



ako:
Bad Manners - Special Brew
Bad Manners - Special Brew

tlač

edituj
Pesničku videlo 2662 návštevníkov.

Kvalita tabov : bez hodnotenia
Hodnotilo ľudí: 0 ohodnoť aj ty
Intro/Main Riff
G------------------------------------------------|
D------------3------5----------------------------|
A---3------4--4-6-6---6---3-------4-3-4-6-4-3----|
E-4--4-3-3--------------4---4-3-3-------------6--|

Verse
G----------------------------------|
D--------------------5-------3-----|
A-----3------3---6-6---6-4-4---4---|
E-4-4---4-4-4--4-------------------|
Verse Variation
(Just Listen and figure out when this part is played)
G-------------------------------------------|
D----------------5--------------------------|
A----3-----3--6-6-6-4-4-3-4-----------------|
E-4-4-4-4-4-4-------------------------------|
Bridge/Outro
G----------------------------------|
D------------3------5------3-------|
A-----3--4-4--4-6-6--6-4-4--4------|
E-4-4--4---------------------------|

Solo
G--------------------------------------------|
D-----------3-----5--------------------------|
A---3------4-4-6-6-6---4------4-3-4-6-4-3----|
E-4--4-3-3-----------4--4-3-3-------------6--|
Solo cont.
G----------------------5------6-5-6-8-6-5-----------|
D------------3-----5--6-6-5-5-------------8---------|
A---3------4--4-6-6-6-------------------------------|
E-4--4-3-3------------------------------------------|

 
»
Tvoje obľúbené položky
Tvoje obľúbené položky
»
Najnovšie videá
Najnovšie videá

»
Tvoje obľúbené piesne
Tvoje obľúbené piesne
»
Najnavštevovanejšie piesne
Najnavštevovanejšie piesne
»
Nové albumy interpreta
Nové albumy interpreta



home | interpreti | nové piesne | cd & dvd shop | pripomienky/nápady | kontakt | ochrana údajov | inzercia
(C) 2002 - Pavol Bacigál - kontakt: info@supermusic.sk